  0
SECTION
  2
HEADER
  9
$ACADVER
  1
AC1015
  9
$ACADMAINTVER
 70
     6
  9
$DWGCODEPAGE
  3
DOS850
  9
$INSBASE
 10
0.0
 20
0.0
 30
0.0
  9
$EXTMIN
 10
0.0
 20
0.0
 30
0.0
  9
$EXTMAX
 10
297.0
 20
210.0
 30
0.0
  9
$LIMMIN
 10
0.0
 20
0.0
  9
$LIMMAX
 10
297.0
 20
210.0
  9
$ORTHOMODE
 70
     0
  9
$REGENMODE
 70
     1
  9
$FILLMODE
 70
     1
  9
$QTEXTMODE
 70
     0
  9
$MIRRTEXT
 70
     1
  9
$LTSCALE
 40
25.4
  9
$ATTMODE
 70
     1
  9
$TEXTSIZE
 40
3.5
  9
$TRACEWID
 40
0.05
  9
$TEXTSTYLE
  7
Standard
  9
$CLAYER
  8
0
  9
$CELTYPE
  6
Continuous
  9
$CECOLOR
 62
   256
  9
$CELTSCALE
 40
1.0
  9
$DISPSILH
 70
     0
  9
$DIMSCALE
 40
1.0
  9
$DIMASZ
 40
5.0
  9
$DIMEXO
 40
3.0
  9
$DIMDLI
 40
0.38
  9
$DIMRND
 40
0.0
  9
$DIMDLE
 40
0.0
  9
$DIMEXE
 40
2.0
  9
$DIMTP
 40
0.0
  9
$DIMTM
 40
0.0
  9
$DIMTXT
 40
3.5
  9
$DIMCEN
 40
4.0
  9
$DIMTSZ
 40
0.0
  9
$DIMTOL
 70
     0
  9
$DIMLIM
 70
     0
  9
$DIMTIH
 70
     1
  9
$DIMTOH
 70
     1
  9
$DIMSE1
 70
     0
  9
$DIMSE2
 70
     0
  9
$DIMTAD
 70
     0
  9
$DIMZIN
 70
     0
  9
$DIMBLK
  1

  9
$DIMASO
 70
     1
  9
$DIMSHO
 70
     1
  9
$DIMPOST
  1

  9
$DIMAPOST
  1

  9
$DIMALT
 70
     0
  9
$DIMALTD
 70
     2
  9
$DIMALTF
 40
25.4
  9
$DIMLFAC
 40
1.0
  9
$DIMTOFL
 70
     0
  9
$DIMTVP
 40
0.0
  9
$DIMTIX
 70
     0
  9
$DIMSOXD
 70
     0
  9
$DIMSAH
 70
     0
  9
$DIMBLK1
  1

  9
$DIMBLK2
  1

  9
$DIMSTYLE
  2
Standard
  9
$DIMCLRD
 70
     0
  9
$DIMCLRE
 70
     0
  9
$DIMCLRT
 70
     0
  9
$DIMTFAC
 40
1.0
  9
$DIMGAP
 40
1.0
  9
$DIMJUST
 70
     0
  9
$DIMSD1
 70
     0
  9
$DIMSD2
 70
     0
  9
$DIMTOLJ
 70
     1
  9
$DIMTZIN
 70
     0
  9
$DIMALTZ
 70
     0
  9
$DIMALTTZ
 70
     0
  9
$DIMUPT
 70
     0
  9
$DIMDEC
 70
     4
  9
$DIMTDEC
 70
     4
  9
$DIMALTU
 70
     2
  9
$DIMALTTD
 70
     2
  9
$DIMTXSTY
  7
Standard
  9
$DIMAUNIT
 70
     0
  9
$DIMADEC
 70
     0
  9
$DIMALTRND
 40
0.0
  9
$DIMAZIN
 70
     0
  9
$DIMDSEP
 70
     0
  9
$DIMATFIT
 70
     3
  9
$DIMFRAC
 70
     0
  9
$DIMLDRBLK
  1

  9
$DIMLUNIT
 70
     2
  9
$DIMLWD
 70
     0
  9
$DIMLWE
 70
     0
  9
$DIMTMOVE
 70
     0
  9
$LUNITS
 70
     2
  9
$LUPREC
 70
     4
  9
$SKETCHINC
 40
0.1
  9
$FILLETRAD
 40
0.0
  9
$AUNITS
 70
     0
  9
$AUPREC
 70
     0
  9
$MENU
  1
acad
  9
$ELEVATION
 40
0.0
  9
$PELEVATION
 40
0.0
  9
$THICKNESS
 40
0.0
  9
$LIMCHECK
 70
     0
  9
$CHAMFERA
 40
0.0
  9
$CHAMFERB
 40
0.0
  9
$CHAMFERC
 40
0.0
  9
$CHAMFERD
 40
0.0
  9
$SKPOLY
 70
     0
  9
$TDCREATE
 40
0.000000000
  9
$TDUCREATE
 40
0.000000000
  9
$TDUPDATE
 40
0.000000000
  9
$TDUUPDATE
 40
0.000000000
  9
$TDINDWG
 40
0.0000000000
  9
$TDUSRTIMER
 40
0.0000000000
  9
$USRTIMER
 70
     1
  9
$ANGBASE
 50
0.0
  9
$ANGDIR
 70
     0
  9
$PDMODE
 70
     0
  9
$PDSIZE
 40
0.0
  9
$PLINEWID
 40
0.0
  9
$SPLFRAME
 70
     0
  9
$SPLINETYPE
 70
     6
  9
$SPLINESEGS
 70
     8
  9
$HANDSEED
  5
614
  9
$SURFTAB1
 70
     6
  9
$SURFTAB2
 70
     6
  9
$SURFTYPE
 70
     6
  9
$SURFU
 70
     6
  9
$SURFV
 70
     6
  9
$UCSBASE
  2

  9
$UCSNAME
  2

  9
$UCSORG
 10
0.0
 20
0.0
 30
0.0
  9
$UCSXDIR
 10
1.0
 20
0.0
 30
0.0
  9
$UCSYDIR
 10
0.0
 20
1.0
 30
0.0
  9
$UCSORTHOREF
  2

  9
$UCSORTHOVIEW
 70
     0
  9
$UCSORGTOP
 10
0.0
 20
0.0
 30
0.0
  9
$UCSORGBOTTOM
 10
0.0
 20
0.0
 30
0.0
  9
$UCSORGLEFT
 10
0.0
 20
0.0
 30
0.0
  9
$UCSORGRIGHT
 10
0.0
 20
0.0
 30
0.0
  9
$UCSORGFRONT
 10
0.0
 20
0.0
 30
0.0
  9
$UCSORGBACK
 10
0.0
 20
0.0
 30
0.0
  9
$PUCSBASE
  2

  9
$PUCSNAME
  2

  9
$PUCSORG
 10
0.0
 20
0.0
 30
0.0
  9
$PUCSXDIR
 10
1.0
 20
0.0
 30
0.0
  9
$PUCSYDIR
 10
0.0
 20
1.0
 30
0.0
  9
$PUCSORTHOREF
  2

  9
$PUCSORTHOVIEW
 70
     0
  9
$PUCSORGTOP
 10
0.0
 20
0.0
 30
0.0
  9
$PUCSORGBOTTOM
 10
0.0
 20
0.0
 30
0.0
  9
$PUCSORGLEFT
 10
0.0
 20
0.0
 30
0.0
  9
$PUCSORGRIGHT
 10
0.0
 20
0.0
 30
0.0
  9
$PUCSORGFRONT
 10
0.0
 20
0.0
 30
0.0
  9
$PUCSORGBACK
 10
0.0
 20
0.0
 30
0.0
  9
$USERI1
 70
     0
  9
$USERI2
 70
     0
  9
$USERI3
 70
     0
  9
$USERI4
 70
     0
  9
$USERI5
 70
     0
  9
$USERR1
 40
0.0
  9
$USERR2
 40
0.0
  9
$USERR3
 40
0.0
  9
$USERR4
 40
0.0
  9
$USERR5
 40
0.0
  9
$WORLDVIEW
 70
     1
  9
$SHADEDGE
 70
     3
  9
$SHADEDIF
 70
    70
  9
$TILEMODE
 70
     1
  9
$MAXACTVP
 70
    16
  9
$PINSBASE
 10
0.0
 20
0.0
 30
0.0
  9
$PLIMCHECK
 70
     0
  9
$PEXTMIN
 10
1.000000E+20
 20
1.000000E+20
 30
1.000000E+20
  9
$PEXTMAX
 10
-1.000000E+20
 20
-1.000000E+20
 30
-1.000000E+20
  9
$PLIMMIN
 10
0.0
 20
0.0
  9
$PLIMMAX
 10
297.0
 20
210.0
  9
$UNITMODE
 70
     0
  9
$VISRETAIN
 70
     0
  9
$PLINEGEN
 70
     1
  9
$PSLTSCALE
 70
     0
  9
$TREEDEPTH
 70
  3020
  9
$CMLSTYLE
  2
Standard
  9
$CMLJUST
 70
     0
  9
$CMLSCALE
 40
1.0
  9
$PROXYGRAPHICS
 70
     0
  9
$MEASUREMENT
 70
     0
  9
$CELWEIGHT
370
     0
  9
$ENDCAPS
280
     0
  9
$JOINSTYLE
280
     0
  9
$LWDISPLAY
290
     0
  9
$INSUNITS
 70
     0
  9
$HYPERLINKBASE
  1

  9
$XEDIT
290
     1
  9
$CEPSNTYPE
380
     0
  9
$PSTYLEMODE
290
     0
  9
$FINGERPRINTGUID
  2

  9
$VERSIONGUID
  2

  9
$EXTNAMES
290
     1
  9
$PSVPSCALE
 40
0.0
  0
ENDSEC
  0
SECTION
  2
CLASSES
  0
CLASS
  1
LWPOLYLINE
  2
AcDbPolyline
  3
"AutoCAD"
 90
        0
280
     0
281
     1
  0
CLASS
  1
IMAGE
  2
AcDbRasterImage
  3
ISM
 90
      127
280
     0
281
     1
  0
CLASS
  1
OLE2FRAME
  2
AcDbOle2Frame
  3
""
 90
        0
280
     0
281
     1
  0
CLASS
  1
HATCH
  2
AcDbHatch
  3
"ACAD_SEDONA"
 90
        0
280
     0
281
     1
  0
CLASS
  1
DICTIONARYVAR
  2
AcDbDictionaryVar
  3
"AutoCAD"
 90
        0
280
     0
281
     0
  0
CLASS
  1
RASTERVARIABLES
  2
AcDbRasterVariables
  3
ISM
 90
        0
280
     0
281
     0
  0
CLASS
  1
IMAGEDEF
  2
AcDbRasterImageDef
  3
ISM
 90
        0
280
     0
281
     0
  0
CLASS
  1
IMAGEDEF_REACTOR
  2
AcDbRasterImageDefReactor
  3
ISM
 90
        1
280
     0
281
     0
  0
CLASS
  1
IDBUFFER
  2
AcDbIdBuffer
  3
"Acad"
 90
        0
280
     0
281
     0
  0
CLASS
  1
SPATIAL_FILTER
  2
AcDbSpatialFilter
  3
"Acad"
 90
        0
280
     0
281
     0
  0
CLASS
  1
XRECORD
  2
AcDbXrecord
  3
"<Built In>"
 90
        0
280
     0
281
     0
  0
CLASS
  1
SORTENTSTABLE
  2
AcDbSortentsTable
  3
"AutoCAD"
 90
        0
280
     0
281
     0
  0
CLASS
  1
LAYER_INDEX
  2
AcDbLayerIndex
  3
"Acad"
 90
        0
280
     0
281
     0
  0
CLASS
  1
SPATIAL_INDEX
  2
AcDbSpatialIndex
  3
"Acad"
 90
        0
280
     0
281
     0
  0
CLASS
  1
OBJECT_PTR
  2
CAseDLPNTableRecord
  3
"ASE-LPNTableRecord"
 90
        1
280
     0
281
     0
  0
CLASS
  1
LAYOUT
  2
AcDbLayout
  3
"AutoCAD 2000"
 90
        1
280
     0
281
     0
  0
CLASS
  1
PLOTSETTINGS
  2
AcDbPlotSettings
  3
"AutoCAD 2000"
 90
        1
280
     0
281
     0
  0
CLASS
  1
ACDBDICTIONARYWDFLT
  2
AcDbDictionaryWithDefault
  3
"AutoCAD 2000"
 90
        1
280
     0
281
     0
  0
CLASS
  1
ACDBPLACEHOLDER
  2
AcDbPlaceHolder
  3
"AutoCAD 2000"
 90
        1
280
     0
281
     0
  0
CLASS
  1
VBA_PROJECT
  2
AcDbVbaProject
  3
"acadvba"
 90
        1
280
     0
281
     0
  0
CLASS
  1
WIPEOUT
  2
AcDbWipeout
  3
WipeOut|AutoCAD Express Tool|expresstools@autodesk.com
 90
      127
280
     0
281
     1
  0
CLASS
  1
WIPEOUTVARIABLES
  2
AcDbWipeoutVariables
  3
WipeOut|AutoCAD Express Tool|expresstools@autodesk.com
 90
        0
280
     0
281
     0
  0
CLASS
  1
RTEXT
  2
RText
  3
RText|AutoCAD Express Tool|expresstools@autodesk.com
 90
        0
280
     0
281
     1
  0
CLASS
  1
ARCALIGNEDTEXT
  2
AcDbArcAlignedText
  3
ATEXT|AutoCAD Express Tool|expresstools@autodesk.com
 90
        0
280
     0
281
     1
  0
ENDSEC
  0
SECTION
  2
TABLES
  0
TABLE
  2
VPORT
  5
7
100
AcDbSymbolTable
 70
     1
  0
VPORT
  5
15
100
AcDbSymbolTableRecord
100
AcDbViewportTableRecord
  2
*ACTIVE
 70
     0
 10
0.0
 20
0.0
 11
1.0
 21
1.0
 12
6.591288
 22
4.579184
 13
0.0
 23
0.0
 14
1.0
 24
1.0
 15
0.0
 25
0.0
 16
0.0
 26
0.0
 36
1.0
 17
0.0
 27
0.0
 37
0.0
 40
9.158369
 41
0.688564
 42
50.0
 43
0.0
 44
0.0
 50
0.0
 51
0.0
 71
     0
 72
   100
 73
     1
 74
     1
 75
     0
 76
     0
 77
     0
 78
     0
281
     0
 65
     0
110
0.0
120
0.0
130
0.0
111
1.0
121
0.0
131
0.0
112
0.0
122
1.0
132
0.0
345
0
346
0
 79
     0
146
0.0
  0
ENDTAB
  0
TABLE
  2
LTYPE
  5
4
100
AcDbSymbolTable
 70
     7
  0
LTYPE
  5
11
100
AcDbSymbolTableRecord
100
AcDbLinetypeTableRecord
  2
ByBlock
 70
    64
  3

 72
    65
 73
     0
 40
0.0
  0
LTYPE
  5
12
100
AcDbSymbolTableRecord
100
AcDbLinetypeTableRecord
  2
ByLayer
 70
    64
  3

 72
    65
 73
     0
 40
0.0
  0
LTYPE
  5
13
100
AcDbSymbolTableRecord
100
AcDbLinetypeTableRecord
  2
Continuous
 70
    64
  3
Solid line
 72
    65
 73
     0
 40
0.0
  0
LTYPE
  5
24
100
AcDbSymbolTableRecord
100
AcDbLinetypeTableRecord
  2
HIDDEN
 70
    64
  3
_ _ _ _ _ _ _ _ _ _ _ _ _ _ _ _ _ _ _ _ _ _ _ _
 72
    65
 73
     2
 40
0.1875
 49
0.125
 74
     0
 49
-0.0625
 74
     0
  0
LTYPE
  5
25
100
AcDbSymbolTableRecord
100
AcDbLinetypeTableRecord
  2
DOTTED
 70
    64
  3
...............................................
 72
    65
 73
     2
 40
0.125
 49
0.0
 74
     0
 49
-0.125
 74
     0
  0
LTYPE
  5
26
100
AcDbSymbolTableRecord
100
AcDbLinetypeTableRecord
  2
CENTER
 70
    64
  3
____ _ ____ _ ____ _ ____ _ ____ _ ____ _ ____ 
 72
    65
 73
     4
 40
1.125
 49
0.75
 74
     0
 49
-0.125
 74
     0
 49
0.125
 74
     0
 49
-0.125
 74
     0
  0
LTYPE
  5
27
100
AcDbSymbolTableRecord
100
AcDbLinetypeTableRecord
  2
PHANTOM
 70
    64
  3
______  __  __  ______  __  __  ______  __  __ 
 72
    65
 73
     6
 40
1.25
 49
0.625
 74
     0
 49
-0.125
 74
     0
 49
0.125
 74
     0
 49
-0.125
 74
     0
 49
0.125
 74
     0
 49
-0.125
 74
     0
  0
ENDTAB
  0
TABLE
  2
LAYER
  5
2
100
AcDbSymbolTable
 70
     2
  0
LAYER
  5
14
100
AcDbSymbolTableRecord
100
AcDbLayerTableRecord
  2
0
 70
     0
 62
     7
  6
Continuous
290
     1
370
    -3
390
1D
  0
LAYER
  5
28
100
AcDbSymbolTableRecord
100
AcDbLayerTableRecord
  2
TEXT
 70
     0
 62
     8
  6
Continuous
290
     1
370
    -3
390
1F
  0
ENDTAB
  0
TABLE
  2
STYLE
  5
3
100
AcDbSymbolTable
 70
     1
  0
STYLE
  5
17
100
AcDbSymbolTableRecord
100
AcDbTextStyleTableRecord
  2
Standard
 70
     0
 40
0.0
 41
1.0
 50
0.0
 71
     0
 42
0.0
  3
txt
  4

  0
ENDTAB
  0
TABLE
  2
VIEW
  5
5
100
AcDbSymbolTable
 70
     0
  0
ENDTAB
  0
TABLE
  2
UCS
  5
6
100
AcDbSymbolTable
 70
     0
  0
ENDTAB
  0
TABLE
  2
APPID
  5
8
100
AcDbSymbolTable
 70
     1
  0
APPID
  5
16
100
AcDbSymbolTableRecord
100
AcDbRegAppTableRecord
  2
ACAD
 70
     0
  0
ENDTAB
  0
TABLE
  2
DIMSTYLE
  5
9
100
AcDbSymbolTable
 70
     1
100
AcDbDimStyleTable
 71
     0
  0
DIMSTYLE
105
18
100
AcDbSymbolTableRecord
100
AcDbDimStyleTableRecord
  2
Standard
 70
     0
  3

  4

 40
1.0
 41
0.18
 42
0.0625
 43
0.38
 44
0.18
 45
0.0
 46
0.0
 47
0.0
 48
0.0
 71
     0
 72
     0
 73
     1
 74
     1
 75
     0
 76
     0
 77
     0
 78
     0
 79
     0
140
0.18
141
0.09
142
0.0
143
25.4
144
1.0
145
0.0
146
1.0
147
0.09
148
0.0
170
     0
171
     2
172
     0
173
     0
174
     0
175
     0
176
     0
177
     0
178
     0
179
     0
271
     4
272
     4
273
     2
274
     2
275
     0
276
     0
277
     2
278
    46
279
     0
280
     0
281
     0
282
     0
283
     1
284
     0
285
     0
286
     0
288
     0
340
17
341
0
342
0
343
0
344
0
371
    -2
372
    -2
  0
ENDTAB
  0
TABLE
  2
BLOCK_RECORD
  5
1
100
AcDbSymbolTable
 70
    96
  0
BLOCK_RECORD
  5
A
100
AcDbSymbolTableRecord
100
AcDbBlockTableRecord
  2
*MODEL_SPACE
340
20
  0
BLOCK_RECORD
  5
B
100
AcDbSymbolTableRecord
100
AcDbBlockTableRecord
  2
*PAPER_SPACE
340
21
  0
BLOCK_RECORD
  5
29
100
AcDbSymbolTableRecord
100
AcDbBlockTableRecord
  2
*B0
340
0
  0
BLOCK_RECORD
  5
2C
100
AcDbSymbolTableRecord
100
AcDbBlockTableRecord
  2
*B1
340
0
  0
BLOCK_RECORD
  5
32
100
AcDbSymbolTableRecord
100
AcDbBlockTableRecord
  2
*B2
340
0
  0
BLOCK_RECORD
  5
3D
100
AcDbSymbolTableRecord
100
AcDbBlockTableRecord
  2
*B3
340
0
  0
BLOCK_RECORD
  5
40
100
AcDbSymbolTableRecord
100
AcDbBlockTableRecord
  2
*B4
340
0
  0
BLOCK_RECORD
  5
1A1
100
AcDbSymbolTableRecord
100
AcDbBlockTableRecord
  2
*B5
340
0
  0
BLOCK_RECORD
  5
36E
100
AcDbSymbolTableRecord
100
AcDbBlockTableRecord
  2
*B6
340
0
  0
BLOCK_RECORD
  5
375
100
AcDbSymbolTableRecord
100
AcDbBlockTableRecord
  2
*B7
340
0
  0
BLOCK_RECORD
  5
37C
100
AcDbSymbolTableRecord
100
AcDbBlockTableRecord
  2
*B8
340
0
  0
BLOCK_RECORD
  5
383
100
AcDbSymbolTableRecord
100
AcDbBlockTableRecord
  2
*B9
340
0
  0
BLOCK_RECORD
  5
38A
100
AcDbSymbolTableRecord
100
AcDbBlockTableRecord
  2
*B10
340
0
  0
BLOCK_RECORD
  5
391
100
AcDbSymbolTableRecord
100
AcDbBlockTableRecord
  2
*B11
340
0
  0
BLOCK_RECORD
  5
398
100
AcDbSymbolTableRecord
100
AcDbBlockTableRecord
  2
*B12
340
0
  0
BLOCK_RECORD
  5
39F
100
AcDbSymbolTableRecord
100
AcDbBlockTableRecord
  2
*B13
340
0
  0
BLOCK_RECORD
  5
3A6
100
AcDbSymbolTableRecord
100
AcDbBlockTableRecord
  2
*B14
340
0
  0
BLOCK_RECORD
  5
3AD
100
AcDbSymbolTableRecord
100
AcDbBlockTableRecord
  2
*B15
340
0
  0
BLOCK_RECORD
  5
3B4
100
AcDbSymbolTableRecord
100
AcDbBlockTableRecord
  2
*B16
340
0
  0
BLOCK_RECORD
  5
3BB
100
AcDbSymbolTableRecord
100
AcDbBlockTableRecord
  2
*B17
340
0
  0
BLOCK_RECORD
  5
3C2
100
AcDbSymbolTableRecord
100
AcDbBlockTableRecord
  2
*B18
340
0
  0
BLOCK_RECORD
  5
3C9
100
AcDbSymbolTableRecord
100
AcDbBlockTableRecord
  2
*B19
340
0
  0
BLOCK_RECORD
  5
3D0
100
AcDbSymbolTableRecord
100
AcDbBlockTableRecord
  2
*B20
340
0
  0
BLOCK_RECORD
  5
3D7
100
AcDbSymbolTableRecord
100
AcDbBlockTableRecord
  2
*B21
340
0
  0
BLOCK_RECORD
  5
3DE
100
AcDbSymbolTableRecord
100
AcDbBlockTableRecord
  2
*B22
340
0
  0
BLOCK_RECORD
  5
3E3
100
AcDbSymbolTableRecord
100
AcDbBlockTableRecord
  2
*B23
340
0
  0
BLOCK_RECORD
  5
3E8
100
AcDbSymbolTableRecord
100
AcDbBlockTableRecord
  2
*B24
340
0
  0
BLOCK_RECORD
  5
3ED
100
AcDbSymbolTableRecord
100
AcDbBlockTableRecord
  2
*B25
340
0
  0
BLOCK_RECORD
  5
3F2
100
AcDbSymbolTableRecord
100
AcDbBlockTableRecord
  2
*B26
340
0
  0
BLOCK_RECORD
  5
3FF
100
AcDbSymbolTableRecord
100
AcDbBlockTableRecord
  2
*B27
340
0
  0
BLOCK_RECORD
  5
406
100
AcDbSymbolTableRecord
100
AcDbBlockTableRecord
  2
*B28
340
0
  0
BLOCK_RECORD
  5
40B
100
AcDbSymbolTableRecord
100
AcDbBlockTableRecord
  2
*B29
340
0
  0
BLOCK_RECORD
  5
411
100
AcDbSymbolTableRecord
100
AcDbBlockTableRecord
  2
*B30
340
0
  0
BLOCK_RECORD
  5
424
100
AcDbSymbolTableRecord
100
AcDbBlockTableRecord
  2
*B31
340
0
  0
BLOCK_RECORD
  5
42A
100
AcDbSymbolTableRecord
100
AcDbBlockTableRecord
  2
*B32
340
0
  0
BLOCK_RECORD
  5
42F
100
AcDbSymbolTableRecord
100
AcDbBlockTableRecord
  2
*B33
340
0
  0
BLOCK_RECORD
  5
434
100
AcDbSymbolTableRecord
100
AcDbBlockTableRecord
  2
*B34
340
0
  0
BLOCK_RECORD
  5
43A
100
AcDbSymbolTableRecord
100
AcDbBlockTableRecord
  2
*B35
340
0
  0
BLOCK_RECORD
  5
440
100
AcDbSymbolTableRecord
100
AcDbBlockTableRecord
  2
*B36
340
0
  0
BLOCK_RECORD
  5
445
100
AcDbSymbolTableRecord
100
AcDbBlockTableRecord
  2
*B37
340
0
  0
BLOCK_RECORD
  5
45A
100
AcDbSymbolTableRecord
100
AcDbBlockTableRecord
  2
*B38
340
0
  0
BLOCK_RECORD
  5
45F
100
AcDbSymbolTableRecord
100
AcDbBlockTableRecord
  2
*B39
340
0
  0
BLOCK_RECORD
  5
465
100
AcDbSymbolTableRecord
100
AcDbBlockTableRecord
  2
*B40
340
0
  0
BLOCK_RECORD
  5
46C
100
AcDbSymbolTableRecord
100
AcDbBlockTableRecord
  2
*B41
340
0
  0
BLOCK_RECORD
  5
471
100
AcDbSymbolTableRecord
100
AcDbBlockTableRecord
  2
*B42
340
0
  0
BLOCK_RECORD
  5
482
100
AcDbSymbolTableRecord
100
AcDbBlockTableRecord
  2
*B43
340
0
  0
BLOCK_RECORD
  5
487
100
AcDbSymbolTableRecord
100
AcDbBlockTableRecord
  2
*B44
340
0
  0
BLOCK_RECORD
  5
4B7
100
AcDbSymbolTableRecord
100
AcDbBlockTableRecord
  2
*B45
340
0
  0
BLOCK_RECORD
  5
4CA
100
AcDbSymbolTableRecord
100
AcDbBlockTableRecord
  2
*B46
340
0
  0
BLOCK_RECORD
  5
4CF
100
AcDbSymbolTableRecord
100
AcDbBlockTableRecord
  2
*B47
340
0
  0
BLOCK_RECORD
  5
4D6
100
AcDbSymbolTableRecord
100
AcDbBlockTableRecord
  2
*B48
340
0
  0
BLOCK_RECORD
  5
4DF
100
AcDbSymbolTableRecord
100
AcDbBlockTableRecord
  2
*B49
340
0
  0
BLOCK_RECORD
  5
4E5
100
AcDbSymbolTableRecord
100
AcDbBlockTableRecord
  2
*B50
340
0
  0
BLOCK_RECORD
  5
4EA
100
AcDbSymbolTableRecord
100
AcDbBlockTableRecord
  2
*B51
340
0
  0
BLOCK_RECORD
  5
51D
100
AcDbSymbolTableRecord
100
AcDbBlockTableRecord
  2
*B52
340
0
  0
BLOCK_RECORD
  5
526
100
AcDbSymbolTableRecord
100
AcDbBlockTableRecord
  2
*B53
340
0
  0
BLOCK_RECORD
  5
52C
100
AcDbSymbolTableRecord
100
AcDbBlockTableRecord
  2
*B54
340
0
  0
BLOCK_RECORD
  5
532
100
AcDbSymbolTableRecord
100
AcDbBlockTableRecord
  2
*B55
340
0
  0
BLOCK_RECORD
  5
53F
100
AcDbSymbolTableRecord
100
AcDbBlockTableRecord
  2
*B56
340
0
  0
BLOCK_RECORD
  5
544
100
AcDbSymbolTableRecord
100
AcDbBlockTableRecord
  2
*B57
340
0
  0
BLOCK_RECORD
  5
54A
100
AcDbSymbolTableRecord
100
AcDbBlockTableRecord
  2
*B58
340
0
  0
BLOCK_RECORD
  5
54F
100
AcDbSymbolTableRecord
100
AcDbBlockTableRecord
  2
*B59
340
0
  0
BLOCK_RECORD
  5
555
100
AcDbSymbolTableRecord
100
AcDbBlockTableRecord
  2
*B60
340
0
  0
BLOCK_RECORD
  5
55B
100
AcDbSymbolTableRecord
100
AcDbBlockTableRecord
  2
*B61
340
0
  0
BLOCK_RECORD
  5
561
100
AcDbSymbolTableRecord
100
AcDbBlockTableRecord
  2
*B62
340
0
  0
BLOCK_RECORD
  5
567
100
AcDbSymbolTableRecord
100
AcDbBlockTableRecord
  2
*B63
340
0
  0
BLOCK_RECORD
  5
56D
100
AcDbSymbolTableRecord
100
AcDbBlockTableRecord
  2
*B64
340
0
  0
BLOCK_RECORD
  5
573
100
AcDbSymbolTableRecord
100
AcDbBlockTableRecord
  2
*B65
340
0
  0
BLOCK_RECORD
  5
579
100
AcDbSymbolTableRecord
100
AcDbBlockTableRecord
  2
*B66
340
0
  0
BLOCK_RECORD
  5
57F
100
AcDbSymbolTableRecord
100
AcDbBlockTableRecord
  2
*B67
340
0
  0
BLOCK_RECORD
  5
585
100
AcDbSymbolTableRecord
100
AcDbBlockTableRecord
  2
*B68
340
0
  0
BLOCK_RECORD
  5
58B
100
AcDbSymbolTableRecord
100
AcDbBlockTableRecord
  2
*B69
340
0
  0
BLOCK_RECORD
  5
592
100
AcDbSymbolTableRecord
100
AcDbBlockTableRecord
  2
*B70
340
0
  0
BLOCK_RECORD
  5
597
100
AcDbSymbolTableRecord
100
AcDbBlockTableRecord
  2
*B71
340
0
  0
BLOCK_RECORD
  5
59C
100
AcDbSymbolTableRecord
100
AcDbBlockTableRecord
  2
*B72
340
0
  0
BLOCK_RECORD
  5
5A1
100
AcDbSymbolTableRecord
100
AcDbBlockTableRecord
  2
*B73
340
0
  0
BLOCK_RECORD
  5
5A6
100
AcDbSymbolTableRecord
100
AcDbBlockTableRecord
  2
*B74
340
0
  0
BLOCK_RECORD
  5
5AB
100
AcDbSymbolTableRecord
100
AcDbBlockTableRecord
  2
*B75
340
0
  0
BLOCK_RECORD
  5
5B0
100
AcDbSymbolTableRecord
100
AcDbBlockTableRecord
  2
*B76
340
0
  0
BLOCK_RECORD
  5
5B5
100
AcDbSymbolTableRecord
100
AcDbBlockTableRecord
  2
*B77
340
0
  0
BLOCK_RECORD
  5
5BA
100
AcDbSymbolTableRecord
100
AcDbBlockTableRecord
  2
*B78
340
0
  0
BLOCK_RECORD
  5
5BF
100
AcDbSymbolTableRecord
100
AcDbBlockTableRecord
  2
*B79
340
0
  0
BLOCK_RECORD
  5
5C4
100
AcDbSymbolTableRecord
100
AcDbBlockTableRecord
  2
*B80
340
0
  0
BLOCK_RECORD
  5
5C9
100
AcDbSymbolTableRecord
100
AcDbBlockTableRecord
  2
*B81
340
0
  0
BLOCK_RECORD
  5
5CE
100
AcDbSymbolTableRecord
100
AcDbBlockTableRecord
  2
*B82
340
0
  0
BLOCK_RECORD
  5
5D3
100
AcDbSymbolTableRecord
100
AcDbBlockTableRecord
  2
*B83
340
0
  0
BLOCK_RECORD
  5
5D8
100
AcDbSymbolTableRecord
100
AcDbBlockTableRecord
  2
*B84
340
0
  0
BLOCK_RECORD
  5
5DD
100
AcDbSymbolTableRecord
100
AcDbBlockTableRecord
  2
*B85
340
0
  0
BLOCK_RECORD
  5
5E2
100
AcDbSymbolTableRecord
100
AcDbBlockTableRecord
  2
*B86
340
0
  0
BLOCK_RECORD
  5
5E7
100
AcDbSymbolTableRecord
100
AcDbBlockTableRecord
  2
*B87
340
0
  0
BLOCK_RECORD
  5
5EC
100
AcDbSymbolTableRecord
100
AcDbBlockTableRecord
  2
*B88
340
0
  0
BLOCK_RECORD
  5
5F1
100
AcDbSymbolTableRecord
100
AcDbBlockTableRecord
  2
*B89
340
0
  0
BLOCK_RECORD
  5
5F6
100
AcDbSymbolTableRecord
100
AcDbBlockTableRecord
  2
*B90
340
0
  0
BLOCK_RECORD
  5
5FB
100
AcDbSymbolTableRecord
100
AcDbBlockTableRecord
  2
*B91
340
0
  0
BLOCK_RECORD
  5
600
100
AcDbSymbolTableRecord
100
AcDbBlockTableRecord
  2
*B92
340
0
  0
BLOCK_RECORD
  5
605
100
AcDbSymbolTableRecord
100
AcDbBlockTableRecord
  2
*B93
340
0
  0
BLOCK_RECORD
  5
60A
100
AcDbSymbolTableRecord
100
AcDbBlockTableRecord
  2
*B94
340
0
  0
BLOCK_RECORD
  5
60F
100
AcDbSymbolTableRecord
100
AcDbBlockTableRecord
  2
*B95
340
0
  0
ENDTAB
  0
ENDSEC
  0
SECTION
  2
BLOCKS
  0
BLOCK
  5
D
100
AcDbEntity
  8
0
100
AcDbBlockBegin
  2
*MODEL_SPACE
 70
     0
 10
0.0
 20
0.0
 30
0.0
  3
*MODEL_SPACE
  1

  0
ENDBLK
  5
E
100
AcDbEntity
  8
0
100
AcDbBlockEnd
  0
BLOCK
  5
F
100
AcDbEntity
 67
     1
  8
0
100
AcDbBlockBegin
  2
*PAPER_SPACE
 70
     0
 10
0.0
 20
0.0
 30
0.0
  3
*PAPER_SPACE
  1

  0
ENDBLK
  5
10
100
AcDbEntity
 67
     1
  8
0
100
AcDbBlockEnd
  0
BLOCK
  5
2A
100
AcDbEntity
  8
0
100
AcDbBlockBegin
  2
*B0
 70
     0
 10
0.0
 20
0.0
 30
0.0
  3
*B0
  1

  0
ENDBLK
  5
2B
100
AcDbEntity
  8
0
100
AcDbBlockEnd
  0
BLOCK
  5
2D
100
AcDbEntity
  8
0
100
AcDbBlockBegin
  2
*B1
 70
     0
 10
0.0
 20
0.0
 30
0.0
  3
*B1
  1

  0
LINE
  5
2E
100
AcDbEntity
  8
0
  6
Continuous
 62
   172
100
AcDbLine
 10
81.199933
 20
131.542287
 30
0.0
 11
63.508484
 21
101.457334
 31
0.0
  0
LINE
  5
2F
100
AcDbEntity
  8
0
  6
Continuous
 62
   172
100
AcDbLine
 10
63.508484
 20
101.457334
 30
0.0
 11
55.099933
 21
101.457334
 31
0.0
  0
ENDBLK
  5
30
100
AcDbEntity
  8
0
100
AcDbBlockEnd
  0
BLOCK
  5
33
100
AcDbEntity
  8
0
100
AcDbBlockBegin
  2
*B2
 70
     0
 10
0.0
 20
0.0
 30
0.0
  3
*B2
  1

  0
LINE
  5
34
100
AcDbEntity
  8
0
  6
Continuous
 62
   172
100
AcDbLine
 10
61.761328
 20
103.280892
 30
0.0
 11
59.961328
 21
103.942287
 31
0.0
  0
LINE
  5
35
100
AcDbEntity
  8
0
  6
Continuous
 62
   172
100
AcDbLine
 10
61.761328
 20
103.280892
 30
0.0
 11
59.961328
 21
102.742287
 31
0.0
  0
LINE
  5
36
100
AcDbEntity
  8
0
  6
Continuous
 62
   172
100
AcDbLine
 10
60.561328
 20
103.280892
 30
0.0
 11
61.761328
 21
103.280892
 31
0.0
  0
LINE
  5
37
100
AcDbEntity
  8
0
  6
Continuous
 62
   172
100
AcDbLine
 10
61.761328
 20
113.603682
 30
0.0
 11
59.961328
 21
112.942287
 31
0.0
  0
LINE
  5
38
100
AcDbEntity
  8
0
  6
Continuous
 62
   172
100
AcDbLine
 10
61.761328
 20
113.603682
 30
0.0
 11
59.961328
 21
114.142287
 31
0.0
  0
LINE
  5
39
100
AcDbEntity
  8
0
  6
Continuous
 62
   172
100
AcDbLine
 10
60.561328
 20
113.603682
 30
0.0
 11
61.761328
 21
113.603682
 31
0.0
  0
ARC
  5
3A
100
AcDbEntity
  8
0
  6
Continuous
 62
   172
100
AcDbCircle
 10
60.561328
 20
108.442287
 30
0.0
 40
5.161395
100
AcDbArc
 50
-270.0
 51
-90.0
  0
ENDBLK
  5
3B
100
AcDbEntity
  8
0
100
AcDbBlockEnd
  0
BLOCK
  5
3E
100
AcDbEntity
  8
0
100
AcDbBlockBegin
  2
*B3
 70
     0
 10
0.0
 20
0.0
 30
0.0
  3
*B3
  1

  0
ENDBLK
  5
3F
100
AcDbEntity
  8
0
100
AcDbBlockEnd
  0
BLOCK
  5
41
100
AcDbEntity
  8
0
100
AcDbBlockBegin
  2
*B4
 70
     0
 10
0.0
 20
0.0
 30
0.0
  3
*B4
  1

  0
LINE
  5
42
100
AcDbEntity
  8
0
  6
HIDDEN
 62
   174
100
AcDbLine
 10
172.023825
 20
29.794257
 30
0.0
 11
165.423808
 21
29.794257
 31
0.0
  0
LINE
  5
43
100
AcDbEntity
  8
0
  6
HIDDEN
 62
   174
100
AcDbLine
 10
156.02395
 20
29.794257
 30
0.0
 11
149.423933
 21
29.794257
 31
0.0
  0
ARC
  5
44
100
AcDbEntity
  8
0
  6
Continuous
 62
   174
100
AcDbCircle
 10
80.348917
 20
44.901543
 30
0.0
 40
3.4
100
AcDbArc
 50
-270.0
 51
-90.0
  0
ARC
  5
45
100
AcDbEntity
  8
0
  6
Continuous
 62
   174
100
AcDbCircle
 10
80.348917
 20
44.901543
 30
0.0
 40
3.4
100
AcDbArc
 50
-90.0
 51
90.0
  0
ARC
  5
46
100
AcDbEntity
  8
0
  6
Continuous
 62
   174
100
AcDbCircle
 10
225.062566
 20
44.686972
 30
0.0
 40
3.4
100
AcDbArc
 50
-90.0
 51
90.0
  0
ARC
  5
47
100
AcDbEntity
  8
0
  6
Continuous
 62
   174
100
AcDbCircle
 10
225.062566
 20
44.686972
 30
0.0
 40
3.4
100
AcDbArc
 50
-270.0
 51
-90.0
  0
ARC
  5
48
100
AcDbEntity
  8
0
  6
Continuous
 62
   174
100
AcDbCircle
 10
80.348917
 20
44.901543
 30
0.0
 40
3.0
100
AcDbArc
 50
-217.286546
 51
-52.713454
  0
ARC
  5
49
100
AcDbEntity
  8
0
  6
Continuous
 62
   174
100
AcDbCircle
 10
225.062566
 20
44.686972
 30
0.0
 40
3.0
100
AcDbArc
 50
-37.286546
 51
127.286546
  0
LINE
  5
4A
100
AcDbEntity
  8
0
  6
Continuous
 62
   174
100
AcDbLine
 10
77.96207
 20
46.718948
 30
0.0
 11
82.166322
 21
42.514696
 31
0.0
  0
LINE
  5
4B
100
AcDbEntity
  8
0
  6
Continuous
 62
   174
100
AcDbLine
 10
227.449413
 20
42.869567
 30
0.0
 11
223.245161
 21
47.073819
 31
0.0
  0
ARC
  5
4C
100
AcDbEntity
  8
0
  6
HIDDEN
 62
   174
100
AcDbCircle
 10
123.705742
 20
54.794257
 30
0.0
 40
2.5
100
AcDbArc
 50
61.189941
 51
180.0
  0
ARC
  5
4D
100
AcDbEntity
  8
0
  6
HIDDEN
 62
   174
100
AcDbCircle
 10
123.705742
 20
54.794257
 30
0.0
 40
2.5
100
AcDbArc
 50
-180.0
 51
0.0
  0
ARC
  5
4E
100
AcDbEntity
  8
0
  6
Continuous
 62
   174
100
AcDbCircle
 10
80.348917
 20
44.901543
 30
0.0
 40
3.0
100
AcDbArc
 50
-41.228296
 51
131.228296
  0
ARC
  5
4F
100
AcDbEntity
  8
0
  6
Continuous
 62
   174
100
AcDbCircle
 10
225.062566
 20
44.686972
 30
0.0
 40
3.0
100
AcDbArc
 50
-221.228296
 51
-48.771704
  0
ARC
  5
50
100
AcDbEntity
  8
0
  6
HIDDEN
 62
   174
100
AcDbCircle
 10
181.705742
 20
34.794257
 30
0.0
 40
2.5
100
AcDbArc
 50
61.225923
 51
180.0
  0
LINE
  5
51
100
AcDbEntity
  8
0
  6
Continuous
 62
   174
100
AcDbLine
 10
54.205742
 20
38.294257
 30
0.0
 11
51.205742
 21
38.294257
 31
0.0
  0
LINE
  5
52
100
AcDbEntity
  8
0
  6
Continuous
 62
   174
100
AcDbLine
 10
251.205742
 20
38.294257
 30
0.0
 11
254.205742
 21
38.294257
 31
0.0
  0
ARC
  5
53
100
AcDbEntity
  8
0
  6
HIDDEN
 62
   174
100
AcDbCircle
 10
181.705742
 20
34.794257
 30
0.0
 40
2.1
100
AcDbArc
 50
0.0
 51
180.0
  0
LINE
  5
54
100
AcDbEntity
  8
0
  6
Continuous
 62
   174
100
AcDbLine
 10
54.205742
 20
52.794257
 30
0.0
 11
66.247702
 21
52.794257
 31
0.0
  0
LINE
  5
55
100
AcDbEntity
  8
0
  6
Continuous
 62
   174
100
AcDbLine
 10
54.205742
 20
36.794257
 30
0.0
 11
66.247702
 21
36.794257
 31
0.0
  0
LINE
  5
56
100
AcDbEntity
  8
0
  6
Continuous
 62
   174
100
AcDbLine
 10
239.205742
 20
52.294257
 30
0.0
 11
239.205742
 21
51.039255
 31
0.0
  0
LINE
  5
57
100
AcDbEntity
  8
0
  6
Continuous
 62
   174
100
AcDbLine
 10
239.205742
 20
38.549259
 30
0.0
 11
239.205742
 21
37.294257
 31
0.0
  0
LINE
  5
58
100
AcDbEntity
  8
0
  6
HIDDEN
 62
   174
100
AcDbLine
 10
71.705742
 20
48.794257
 30
0.0
 11
65.705742
 21
48.794257
 31
0.0
  0
ARC
  5
59
100
AcDbEntity
  8
0
  6
Continuous
 62
   174
100
AcDbCircle
 10
152.705742
 20
44.794257
 30
0.0
 40
10.48
100
AcDbArc
 50
-0.667542
 51
0.0
  0
LINE
  5
5A
100
AcDbEntity
  8
0
  6
Continuous
 62
   174
100
AcDbLine
 10
210.205742
 20
37.294257
 30
0.0
 11
210.205742
 21
52.294257
 31
0.0
  0
LINE
  5
5B
100
AcDbEntity
  8
0
  6
Continuous
 62
   174
100
AcDbLine
 10
193.705742
 20
29.794257
 30
0.0
 11
193.705742
 21
59.794257
 31
0.0
  0
LINE
  5
5C
100
AcDbEntity
  8
0
  6
Continuous
 62
   174
100
AcDbLine
 10
193.705742
 20
59.794257
 30
0.0
 11
193.705742
 21
29.794257
 31
0.0
  0
LINE
  5
5D
100
AcDbEntity
  8
0
  6
Continuous
 62
   174
100
AcDbLine
 10
54.205742
 20
52.809485
 30
0.0
 11
54.205742
 21
51.415938
 31
0.0
  0
LINE
  5
5E
100
AcDbEntity
  8
0
  6
Continuous
 62
   174
100
AcDbLine
 10
54.205742
 20
51.415938
 30
0.0
 11
54.205742
 21
38.203795
 31
0.0
  0
LINE
  5
5F
100
AcDbEntity
  8
0
  6
Continuous
 62
   174
100
AcDbLine
 10
54.205742
 20
38.294257
 30
0.0
 11
51.205742
 21
38.294257
 31
0.0
  0
LINE
  5
60
100
AcDbEntity
  8
0
  6
Continuous
 62
   174
100
AcDbLine
 10
254.205742
 20
53.794257
 30
0.0
 11
254.905742
 21
53.794257
 31
0.0
  0
ARC
  5
61
100
AcDbEntity
  8
0
  6
HIDDEN
 62
   174
100
AcDbCircle
 10
181.705742
 20
34.794257
 30
0.0
 40
2.1
100
AcDbArc
 50
-180.0
 51
0.0
  0
LINE
  5
62
100
AcDbEntity
  8
0
  6
HIDDEN
 62
   174
100
AcDbLine
 10
209.705742
 20
36.794257
 30
0.0
 11
239.705742
 21
36.794257
 31
0.0
  0
LINE
  5
63
100
AcDbEntity
  8
0
  6
HIDDEN
 62
   174
100
AcDbLine
 10
209.705742
 20
40.294257
 30
0.0
 11
210.205742
 21
40.294257
 31
0.0
  0
LINE
  5
64
100
AcDbEntity
  8
0
  6
HIDDEN
 62
   174
100
AcDbLine
 10
239.705742
 20
48.794257
 30
0.0
 11
244.705742
 21
48.794257
 31
0.0
  0
ARC
  5
65
100
AcDbEntity
  8
0
  6
Continuous
 62
   174
100
AcDbCircle
 10
152.705742
 20
44.794257
 30
0.0
 40
10.48
100
AcDbArc
 50
-359.332458
 51
-241.205132
  0
LINE
  5
66
100
AcDbEntity
  8
0
  6
Continuous
 62
   174
100
AcDbLine
 10
111.705742
 20
59.794257
 30
0.0
 11
95.705742
 21
59.794257
 31
0.0
  0
LINE
  5
67
100
AcDbEntity
  8
0
  6
Continuous
 62
   174
100
AcDbLine
 10
95.205742
 20
52.294257
 30
0.0
 11
95.205742
 21
37.294257
 31
0.0
  0
LINE
  5
68
100
AcDbEntity
  8
0
  6
Continuous
 62
   174
100
AcDbLine
 10
209.705742
 20
59.794257
 30
0.0
 11
209.705742
 21
29.794257
 31
0.0
  0
ARC
  5
69
100
AcDbEntity
  8
0
  6
HIDDEN
 62
   174
100
AcDbCircle
 10
123.705742
 20
54.794257
 30
0.0
 40
2.1
100
AcDbArc
 50
0.0
 51
180.0
  0
LINE
  5
6A
100
AcDbEntity
  8
0
  6
HIDDEN
 62
   174
100
AcDbLine
 10
239.705742
 20
55.794257
 30
0.0
 11
209.705742
 21
55.794257
 31
0.0
  0
LINE
  5
6B
100
AcDbEntity
  8
0
  6
Continuous
 62
   174
100
AcDbLine
 10
54.205742
 20
51.294257
 30
0.0
 11
51.205742
 21
51.294257
 31
0.0
  0
LINE
  5
6C
100
AcDbEntity
  8
0
  6
Continuous
 62
   174
100
AcDbLine
 10
251.205742
 20
51.294257
 30
0.0
 11
254.205742
 21
51.294257
 31
0.0
  0
LINE
  5
6D
100
AcDbEntity
  8
0
  6
Continuous
 62
   174
100
AcDbLine
 10
251.205742
 20
38.294257
 30
0.0
 11
254.205742
 21
38.294257
 31
0.0
  0
LINE
  5
6E
100
AcDbEntity
  8
0
  6
Continuous
 62
   174
100
AcDbLine
 10
51.205742
 20
53.794257
 30
0.0
 11
50.505742
 21
53.794257
 31
0.0
  0
LINE
  5
6F
100
AcDbEntity
  8
0
  6
Continuous
 62
   174
100
AcDbLine
 10
254.205742
 20
35.794257
 30
0.0
 11
254.905742
 21
35.794257
 31
0.0
  0
LINE
  5
70
100
AcDbEntity
  8
0
  6
Continuous
 62
   174
100
AcDbLine
 10
46.705742
 20
52.594257
 30
0.0
 11
46.804338
 21
52.765031
 31
0.0
  0
LINE
  5
71
100
AcDbEntity
  8
0
  6
HIDDEN
 62
   174
100
AcDbLine
 10
209.705742
 20
33.794257
 30
0.0
 11
239.705742
 21
33.794257
 31
0.0
  0
LINE
  5
72
100
AcDbEntity
  8
0
  6
Continuous
 62
   174
100
AcDbLine
 10
251.205742
 20
52.794257
 30
0.0
 11
239.163781
 21
52.794257
 31
0.0
  0
LINE
  5
73
100
AcDbEntity
  8
0
  6
Continuous
 62
   174
100
AcDbLine
 10
251.205742
 20
36.794257
 30
0.0
 11
239.163781
 21
36.794257
 31
0.0
  0
LINE
  5
74
100
AcDbEntity
  8
0
  6
Continuous
 62
   174
100
AcDbLine
 10
66.205742
 20
51.039255
 30
0.0
 11
66.205742
 21
52.294257
 31
0.0
  0
LINE
  5
75
100
AcDbEntity
  8
0
  6
HIDDEN
 62
   174
100
AcDbLine
 10
95.205742
 20
40.294257
 30
0.0
 11
71.705742
 21
40.294257
 31
0.0
  0
LINE
  5
76
100
AcDbEntity
  8
0
  6
HIDDEN
 62
   174
100
AcDbLine
 10
95.705742
 20
40.294257
 30
0.0
 11
95.205742
 21
40.294257
 31
0.0
  0
LINE
  5
77
100
AcDbEntity
  8
0
  6
Continuous
 62
   174
100
AcDbLine
 10
213.205742
 20
55.294257
 30
0.0
 11
236.205742
 21
55.294257
 31
0.0
  0
LINE
  5
78
100
AcDbEntity
  8
0
  6
Continuous
 62
   174
100
AcDbLine
 10
236.205742
 20
34.294257
 30
0.0
 11
213.205742
 21
34.294257
 31
0.0
  0
LINE
  5
79
100
AcDbEntity
  8
0
  6
Continuous
 62
   174
100
AcDbLine
 10
54.205742
 20
38.203795
 30
0.0
 11
54.205742
 21
36.810461
 31
0.0
  0
LINE
  5
7A
100
AcDbEntity
  8
0
  6
HIDDEN
 62
   174
100
AcDbLine
 10
65.705742
 20
33.794257
 30
0.0
 11
95.705742
 21
33.794257
 31
0.0
  0
LINE
  5
7B
100
AcDbEntity
  8
0
  6
Continuous
 62
   174
100
AcDbLine
 10
251.205742
 20
52.794257
 30
0.0
 11
239.163781
 21
52.794257
 31
0.0
  0
LINE
  5
7C
100
AcDbEntity
  8
0
  6
HIDDEN
 62
   174
100
AcDbLine
 10
95.205742
 20
49.294257
 30
0.0
 11
71.705742
 21
49.294257
 31
0.0
  0
LINE
  5
7D
100
AcDbEntity
  8
0
  6
HIDDEN
 62
   174
100
AcDbLine
 10
209.705742
 20
49.294257
 30
0.0
 11
210.205742
 21
49.294257
 31
0.0
  0
LINE
  5
7E
100
AcDbEntity
  8
0
  6
HIDDEN
 62
   174
100
AcDbLine
 10
65.705742
 20
40.794257
 30
0.0
 11
60.705742
 21
40.794257
 31
0.0
  0
ARC
  5
7F
100
AcDbEntity
  8
0
  6
Continuous
 62
   174
100
AcDbCircle
 10
152.705742
 20
44.794257
 30
0.0
 40
10.48
100
AcDbArc
 50
-180.0
 51
-179.332458
  0
ARC
  5
80
100
AcDbEntity
  8
0
  6
Continuous
 62
   174
100
AcDbCircle
 10
152.705742
 20
44.794257
 30
0.0
 40
10.48
100
AcDbArc
 50
-179.332458
 51
-0.667542
  0
LINE
  5
81
100
AcDbEntity
  8
0
  6
Continuous
 62
   174
100
AcDbLine
 10
111.705742
 20
59.794257
 30
0.0
 11
111.705742
 21
29.794257
 31
0.0
  0
LINE
  5
82
100
AcDbEntity
  8
0
  6
Continuous
 62
   174
100
AcDbLine
 10
222.806298
 20
46.664155
 30
0.0
 11
227.039749
 21
42.430703
 31
0.0
  0
ARC
  5
83
100
AcDbEntity
  8
0
  6
HIDDEN
 62
   174
100
AcDbCircle
 10
181.705742
 20
34.794257
 30
0.0
 40
2.5
100
AcDbArc
 50
-180.0
 51
0.0
  0
LINE
  5
84
100
AcDbEntity
  8
0
  6
Continuous
 62
   174
100
AcDbLine
 10
258.705742
 20
36.994257
 30
0.0
 11
258.607145
 21
36.823484
 31
0.0
  0
LINE
  5
85
100
AcDbEntity
  8
0
  6
Continuous
 62
   174
100
AcDbLine
 10
54.205742
 20
36.794257
 30
0.0
 11
66.247702
 21
36.794257
 31
0.0
  0
LINE
  5
86
100
AcDbEntity
  8
0
  6
Continuous
 62
   174
100
AcDbLine
 10
251.205742
 20
36.794257
 30
0.0
 11
239.163781
 21
36.794257
 31
0.0
  0
LINE
  5
87
100
AcDbEntity
  8
0
  6
Continuous
 62
   174
100
AcDbLine
 10
66.205742
 20
37.294257
 30
0.0
 11
66.205742
 21
38.549259
 31
0.0
  0
LINE
  5
88
100
AcDbEntity
  8
0
  6
HIDDEN
 62
   174
100
AcDbLine
 10
210.205742
 20
49.294257
 30
0.0
 11
233.705742
 21
49.294257
 31
0.0
  0
LINE
  5
89
100
AcDbEntity
  8
0
  6
HIDDEN
 62
   174
100
AcDbLine
 10
233.705742
 20
40.794257
 30
0.0
 11
239.705742
 21
40.794257
 31
0.0
  0
LINE
  5
8A
100
AcDbEntity
  8
0
  6
HIDDEN
 62
   174
100
AcDbLine
 10
239.705742
 20
40.794257
 30
0.0
 11
244.705742
 21
40.794257
 31
0.0
  0
ARC
  5
8B
100
AcDbEntity
  8
0
  6
Continuous
 62
   174
100
AcDbCircle
 10
152.705742
 20
44.794257
 30
0.0
 40
9.4
100
AcDbArc
 50
-180.0
 51
0.0
  0
LINE
  5
8C
100
AcDbEntity
  8
0
  6
Continuous
 62
   174
100
AcDbLine
 10
193.705742
 20
59.794257
 30
0.0
 11
111.705742
 21
59.794257
 31
0.0
  0
LINE
  5
8D
100
AcDbEntity
  8
0
  6
Continuous
 62
   174
100
AcDbLine
 10
111.705742
 20
29.794257
 30
0.0
 11
111.705742
 21
59.794257
 31
0.0
  0
ARC
  5
8E
100
AcDbEntity
  8
0
  6
HIDDEN
 62
   174
100
AcDbCircle
 10
123.705742
 20
54.794257
 30
0.0
 40
2.1
100
AcDbArc
 50
-180.0
 51
0.0
  0
LINE
  5
8F
100
AcDbEntity
  8
0
  6
Continuous
 62
   174
100
AcDbLine
 10
54.205742
 20
51.294257
 30
0.0
 11
51.205742
 21
51.294257
 31
0.0
  0
LINE
  5
90
100
AcDbEntity
  8
0
  6
Continuous
 62
   174
100
AcDbLine
 10
51.205742
 20
53.794257
 30
0.0
 11
50.505742
 21
53.794257
 31
0.0
  0
LINE
  5
91
100
AcDbEntity
  8
0
  6
Continuous
 62
   174
100
AcDbLine
 10
254.205742
 20
35.794257
 30
0.0
 11
254.905742
 21
35.794257
 31
0.0
  0
LINE
  5
92
100
AcDbEntity
  8
0
  6
HIDDEN
 62
   174
100
AcDbLine
 10
239.705742
 20
52.794257
 30
0.0
 11
209.705742
 21
52.794257
 31
0.0
  0
LINE
  5
93
100
AcDbEntity
  8
0
  6
HIDDEN
 62
   174
100
AcDbLine
 10
95.705742
 20
52.794257
 30
0.0
 11
65.705742
 21
52.794257
 31
0.0
  0
LINE
  5
94
100
AcDbEntity
  8
0
  6
HIDDEN
 62
   174
100
AcDbLine
 10
95.705742
 20
49.294257
 30
0.0
 11
95.205742
 21
49.294257
 31
0.0
  0
LINE
  5
95
100
AcDbEntity
  8
0
  6
HIDDEN
 62
   174
100
AcDbLine
 10
210.205742
 20
40.294257
 30
0.0
 11
233.705742
 21
40.294257
 31
0.0
  0
LINE
  5
96
100
AcDbEntity
  8
0
  6
Continuous
 62
   174
100
AcDbLine
 10
82.605185
 20
42.92436
 30
0.0
 11
78.371734
 21
47.157812
 31
0.0
  0
LINE
  5
97
100
AcDbEntity
  8
0
  6
Continuous
 62
   174
100
AcDbLine
 10
51.205742
 20
35.794257
 30
0.0
 11
50.505742
 21
35.794257
 31
0.0
  0
LINE
  5
98
100
AcDbEntity
  8
0
  6
HIDDEN
 62
   174
100
AcDbLine
 10
65.705742
 20
36.794257
 30
0.0
 11
95.705742
 21
36.794257
 31
0.0
  0
LINE
  5
99
100
AcDbEntity
  8
0
  6
HIDDEN
 62
   174
100
AcDbLine
 10
95.705742
 20
55.794257
 30
0.0
 11
65.705742
 21
55.794257
 31
0.0
  0
LINE
  5
9A
100
AcDbEntity
  8
0
  6
Continuous
 62
   174
100
AcDbLine
 10
54.205742
 20
52.794257
 30
0.0
 11
66.247702
 21
52.794257
 31
0.0
  0
LINE
  5
9B
100
AcDbEntity
  8
0
  6
HIDDEN
 62
   174
100
AcDbLine
 10
71.705742
 20
40.794257
 30
0.0
 11
65.705742
 21
40.794257
 31
0.0
  0
LINE
  5
9C
100
AcDbEntity
  8
0
  6
Continuous
 62
   174
100
AcDbLine
 10
193.705742
 20
29.794257
 30
0.0
 11
209.705742
 21
29.794257
 31
0.0
  0
LINE
  5
9D
100
AcDbEntity
  8
0
  6
Continuous
 62
   174
100
AcDbLine
 10
92.205742
 20
34.294257
 30
0.0
 11
69.205742
 21
34.294257
 31
0.0
  0
LINE
  5
9E
100
AcDbEntity
  8
0
  6
Continuous
 62
   174
100
AcDbLine
 10
193.705742
 20
59.794257
 30
0.0
 11
209.705742
 21
59.794257
 31
0.0
  0
LINE
  5
9F
100
AcDbEntity
  8
0
  6
Continuous
 62
   174
100
AcDbLine
 10
95.705742
 20
29.794257
 30
0.0
 11
95.705742
 21
59.794257
 31
0.0
  0
LINE
  5
A0
100
AcDbEntity
  8
0
  6
Continuous
 62
   174
100
AcDbLine
 10
111.705742
 20
29.794257
 30
0.0
 11
193.705742
 21
29.794257
 31
0.0
  0
LINE
  5
A1
100
AcDbEntity
  8
0
  6
Continuous
 62
   174
100
AcDbLine
 10
69.205742
 20
55.294257
 30
0.0
 11
92.205742
 21
55.294257
 31
0.0
  0
LINE
  5
A2
100
AcDbEntity
  8
0
  6
HIDDEN
 62
   174
100
AcDbLine
 10
65.705742
 20
34.810423
 30
0.0
 11
65.705742
 21
54.80931
 31
0.0
  0
LINE
  5
A3
100
AcDbEntity
  8
0
  6
HIDDEN
 62
   174
100
AcDbLine
 10
54.205742
 20
38.310223
 30
0.0
 11
54.205742
 21
51.30951
 31
0.0
  0
LINE
  5
A4
100
AcDbEntity
  8
0
  6
Continuous
 62
   174
100
AcDbLine
 10
251.205742
 20
51.294257
 30
0.0
 11
254.205742
 21
51.294257
 31
0.0
  0
LINE
  5
A5
100
AcDbEntity
  8
0
  6
Continuous
 62
   174
100
AcDbLine
 10
51.205742
 20
35.794257
 30
0.0
 11
50.505742
 21
35.794257
 31
0.0
  0
LINE
  5
A6
100
AcDbEntity
  8
0
  6
Continuous
 62
   174
100
AcDbLine
 10
254.205742
 20
53.794257
 30
0.0
 11
254.905742
 21
53.794257
 31
0.0
  0
LINE
  5
A7
100
AcDbEntity
  8
0
  6
HIDDEN
 62
   174
100
AcDbLine
 10
65.705742
 20
48.794257
 30
0.0
 11
60.705742
 21
48.794257
 31
0.0
  0
LINE
  5
A8
100
AcDbEntity
  8
0
  6
HIDDEN
 62
   174
100
AcDbLine
 10
233.705742
 20
48.794257
 30
0.0
 11
239.705742
 21
48.794257
 31
0.0
  0
ARC
  5
A9
100
AcDbEntity
  8
0
  6
Continuous
 62
   174
100
AcDbCircle
 10
152.705742
 20
44.794257
 30
0.0
 40
10.48
100
AcDbArc
 50
0.0
 51
0.667542
  0
ARC
  5
AA
100
AcDbEntity
  8
0
  6
Continuous
 62
   174
100
AcDbCircle
 10
152.705742
 20
44.794257
 30
0.0
 40
9.4
100
AcDbArc
 50
0.0
 51
180.0
  0
LINE
  5
AB
100
AcDbEntity
  8
0
  6
Continuous
 62
   174
100
AcDbLine
 10
111.705742
 20
29.794257
 30
0.0
 11
95.705742
 21
29.794257
 31
0.0
  0
LINE
  5
AC
100
AcDbEntity
  8
0
  6
HIDDEN
 62
   174
100
AcDbLine
 10
239.705742
 20
54.80931
 30
0.0
 11
239.705742
 21
34.810423
 31
0.0
  0
LINE
  5
AD
100
AcDbEntity
  8
0
  6
HIDDEN
 62
   174
100
AcDbLine
 10
251.205742
 20
51.30951
 30
0.0
 11
251.205742
 21
38.310223
 31
0.0
  0
LINE
  5
AE
100
AcDbEntity
  8
0
  6
HIDDEN
 62
   174
100
AcDbLine
 10
51.205742
 20
51.30951
 30
0.0
 11
51.205742
 21
38.310223
 31
0.0
  0
LINE
  5
AF
100
AcDbEntity
  8
0
  6
HIDDEN
 62
   174
100
AcDbLine
 10
254.205742
 20
38.310223
 30
0.0
 11
254.205742
 21
51.30951
 31
0.0
  0
ARC
  5
B0
100
AcDbEntity
  8
0
  6
Continuous
 62
   174
100
AcDbCircle
 10
106.705742
 20
44.794257
 30
0.0
 40
3.0
100
AcDbArc
 50
-90.0
 51
-45.0
  0
LINE
  5
B1
100
AcDbEntity
  8
0
  6
HIDDEN
 62
   174
100
AcDbLine
 10
241.205742
 20
53.408459
 30
0.0
 11
241.205742
 21
49.87231
 31
0.0
  0
LINE
  5
B2
100
AcDbEntity
  8
0
  6
Continuous
 62
   174
100
AcDbLine
 10
254.905742
 20
44.884191
 30
0.0
 11
258.012921
 21
44.884191
 31
0.0
  0
LWPOLYLINE
  5
B3
100
AcDbEntity
  8
0
  6
Continuous
 62
   174
100
AcDbPolyline
 90
        7
 70
   128
 10
258.012921
 20
52.54313
 10
258.379048
 20
51.241164
 10
258.607146
 20
49.964562
 10
258.684049
 20
48.713591
 10
258.607131
 20
47.462636
 10
258.379031
 20
46.186081
 10
258.012921
 20
44.884191
  0
LWPOLYLINE
  5
B4
100
AcDbEntity
  8
0
  6
Continuous
 62
   174
100
AcDbPolyline
 90
        6
 70
   128
 10
239.205742
 20
51.039255
 10
239.033399
 20
50.083294
 10
238.581599
 20
48.956854
 10
237.918528
 20
47.675863
 10
237.109998
 20
46.281847
 10
236.205742
 20
44.794257
  0
LINE
  5
B5
100
AcDbEntity
  8
0
  6
Continuous
 62
   174
100
AcDbLine
 10
64.205742
 20
54.490876
 30
0.0
 11
64.205742
 21
54.696934
 31
0.0
  0
LINE
  5
B6
100
AcDbEntity
  8
0
  6
Continuous
 62
   174
100
AcDbLine
 10
254.205742
 20
51.523853
 30
0.0
 11
254.205742
 21
38.096093
 31
0.0
  0
LWPOLYLINE
  5
B7
100
AcDbEntity
  8
0
  6
Continuous
 62
   174
100
AcDbPolyline
 90
        3
 70
   128
 10
47.398562
 20
52.633064
 10
47.032459
 20
52.633064
 10
46.80436
 20
52.633064
  0
LINE
  5
B8
100
AcDbEntity
  8
0
  6
Continuous
 62
   174
100
AcDbLine
 10
236.205742
 20
37.294257
 30
0.0
 11
213.205742
 21
37.294257
 31
0.0
  0
LINE
  5
B9
100
AcDbEntity
  8
0
  6
Continuous
 62
   174
100
AcDbLine
 10
92.205742
 20
52.309423
 30
0.0
 11
92.205742
 21
55.309373
 31
0.0
  0
ARC
  5
BA
100
AcDbEntity
  8
0
  6
Continuous
 62
   174
100
AcDbCircle
 10
198.705742
 20
44.794257
 30
0.0
 40
3.0
100
AcDbArc
 50
-135.0
 51
-90.0
  0
ARC
  5
BB
100
AcDbEntity
  8
0
  6
Continuous
 62
   174
100
AcDbCircle
 10
198.705742
 20
44.794257
 30
0.0
 40
3.0
100
AcDbArc
 50
-270.0
 51
-225.0
  0
ARC
  5
BC
100
AcDbEntity
  8
0
  6
Continuous
 62
   174
100
AcDbCircle
 10
106.705742
 20
44.794257
 30
0.0
 40
2.5
100
AcDbArc
 50
-320.76848
 51
-281.536959
  0
LWPOLYLINE
  5
BD
100
AcDbEntity
  8
0
  6
Continuous
 62
   174
100
AcDbPolyline
 90
        4
 70
   128
 10
258.705742
 20
52.54313
 10
258.572621
 20
52.54313
 10
258.339536
 20
52.54313
 10
258.012921
 20
52.54313
  0
LINE
  5
BE
100
AcDbEntity
  8
0
  6
Continuous
 62
   174
100
AcDbLine
 10
240.705742
 20
34.794257
 30
0.0
 11
239.705742
 21
34.794257
 31
0.0
  0
LINE
  5
BF
100
AcDbEntity
  8
0
  6
Continuous
 62
   174
100
AcDbLine
 10
69.205742
 20
44.794257
 30
0.0
 11
69.205742
 21
52.294257
 31
0.0
  0
LINE
  5
C0
100
AcDbEntity
  8
0
  6
Continuous
 62
   174
100
AcDbLine
 10
241.205742
 20
54.80931
 30
0.0
 11
241.205742
 21
54.696722
 31
0.0
  0
ARC
  5
C1
100
AcDbEntity
  8
0
  6
Continuous
 62
   174
100
AcDbCircle
 10
198.705742
 20
44.794257
 30
0.0
 40
3.0
100
AcDbArc
 50
-315.0
 51
-270.0
  0
LINE
  5
C2
100
AcDbEntity
  8
0
  6
Continuous
 62
   174
100
AcDbLine
 10
199.205742
 20
42.344768
 30
0.0
 11
199.205742
 21
47.243747
 31
0.0
  0
LINE
  5
C3
100
AcDbEntity
  8
0
  6
HIDDEN
 62
   174
100
AcDbLine
 10
95.705742
 20
55.794257
 30
0.0
 11
95.705742
 21
33.794257
 31
0.0
  0
LINE
  5
C4
100
AcDbEntity
  8
0
  6
Continuous
 62
   174
100
AcDbLine
 10
236.223858
 20
37.294257
 30
0.0
 11
239.223808
 21
37.294257
 31
0.0
  0
LINE
  5
C5
100
AcDbEntity
  8
0
  6
HIDDEN
 62
   174
100
AcDbLine
 10
71.705742
 20
48.809623
 30
0.0
 11
71.705742
 21
44.809973
 31
0.0
  0
LINE
  5
C6
100
AcDbEntity
  8
0
  6
Continuous
 62
   174
100
AcDbLine
 10
236.205742
 20
52.294257
 30
0.0
 11
236.205742
 21
44.794257
 31
0.0
  0
LINE
  5
C7
100
AcDbEntity
  8
0
  6
HIDDEN
 62
   174
100
AcDbLine
 10
209.705742
 20
33.794257
 30
0.0
 11
209.705742
 21
55.794257
 31
0.0
  0
LINE
  5
C8
100
AcDbEntity
  8
0
  6
Continuous
 62
   174
100
AcDbLine
 10
50.505742
 20
44.719902
 30
0.0
 11
50.505742
 21
37.061554
 31
0.0
  0
LWPOLYLINE
  5
C9
100
AcDbEntity
  8
0
  6
HIDDEN
 62
   174
100
AcDbPolyline
 90
        4
 70
   128
 10
239.163781
 20
52.794257
 10
239.172777
 20
52.737769
 10
239.193182
 20
52.568482
 10
239.205742
 20
52.294257
  0
LINE
  5
CA
100
AcDbEntity
  8
0
  6
Continuous
 62
   174
100
AcDbLine
 10
236.205742
 20
44.794257
 30
0.0
 11
236.205742
 21
37.294257
 31
0.0
  0
LINE
  5
CB
100
AcDbEntity
  8
0
  6
Continuous
 62
   174
100
AcDbLine
 10
107.205742
 20
42.344768
 30
0.0
 11
107.205742
 21
47.243747
 31
0.0
  0
LINE
  5
CC
100
AcDbEntity
  8
0
  6
HIDDEN
 62
   174
100
AcDbLine
 10
254.905742
 20
44.884191
 30
0.0
 11
254.905742
 21
52.54313
 31
0.0
  0
LINE
  5
CD
100
AcDbEntity
  8
0
  6
Continuous
 62
   174
100
AcDbLine
 10
46.705742
 20
47.912102
 30
0.0
 11
46.705742
 21
37.061554
 31
0.0
  0
LWPOLYLINE
  5
CE
100
AcDbEntity
  8
0
  6
Continuous
 62
   174
100
AcDbPolyline
 90
        4
 70
   128
 10
46.705742
 20
49.440852
 10
46.838862
 20
50.49456
 10
47.071945
 20
51.552973
 10
47.398562
 20
52.633064
  0
LINE
  5
CF
100
AcDbEntity
  8
0
  6
Continuous
 62
   174
100
AcDbLine
 10
69.205742
 20
52.294257
 30
0.0
 11
92.205742
 21
52.294257
 31
0.0
  0
LINE
  5
D0
100
AcDbEntity
  8
0
  6
Continuous
 62
   174
100
AcDbLine
 10
236.205742
 20
37.310311
 30
0.0
 11
236.205742
 21
34.310573
 31
0.0
  0
LINE
  5
D1
100
AcDbEntity
  8
0
  6
Continuous
 62
   174
100
AcDbLine
 10
254.205742
 20
38.096093
 30
0.0
 11
254.205742
 21
35.810336
 31
0.0
  0
LINE
  5
D2
100
AcDbEntity
  8
0
  6
Continuous
 62
   174
100
AcDbLine
 10
254.905742
 20
52.558392
 30
0.0
 11
254.905742
 21
53.809398
 31
0.0
  0
LINE
  5
D3
100
AcDbEntity
  8
0
  6
Continuous
 62
   174
100
AcDbLine
 10
241.205742
 20
54.794257
 30
0.0
 11
240.705742
 21
54.794257
 31
0.0
  0
LINE
  5
D4
100
AcDbEntity
  8
0
  6
Continuous
 62
   174
100
AcDbLine
 10
64.205742
 20
34.810423
 30
0.0
 11
64.205742
 21
34.923012
 31
0.0
  0
LINE
  5
D5
100
AcDbEntity
  8
0
  6
Continuous
 62
   174
100
AcDbLine
 10
198.205742
 20
47.243747
 30
0.0
 11
198.205742
 21
42.344768
 31
0.0
  0
LINE
  5
D6
100
AcDbEntity
  8
0
  6
Continuous
 62
   174
100
AcDbLine
 10
240.705742
 20
54.794257
 30
0.0
 11
239.705742
 21
54.794257
 31
0.0
  0
LINE
  5
D7
100
AcDbEntity
  8
0
  6
Continuous
 62
   174
100
AcDbLine
 10
241.205742
 20
54.696722
 30
0.0
 11
241.205742
 21
54.491939
 31
0.0
  0
LINE
  5
D8
100
AcDbEntity
  8
0
  6
Continuous
 62
   174
100
AcDbLine
 10
92.205742
 20
55.294257
 30
0.0
 11
69.205742
 21
55.294257
 31
0.0
  0
LINE
  5
D9
100
AcDbEntity
  8
0
  6
Continuous
 62
   174
100
AcDbLine
 10
210.223796
 20
52.294257
 30
0.0
 11
213.223746
 21
52.294257
 31
0.0
  0
LINE
  5
DA
100
AcDbEntity
  8
0
  6
Continuous
 62
   174
100
AcDbLine
 10
69.205742
 20
52.309423
 30
0.0
 11
69.205742
 21
55.309373
 31
0.0
  0
LINE
  5
DB
100
AcDbEntity
  8
0
  6
Continuous
 62
   174
100
AcDbLine
 10
50.505742
 20
37.061554
 30
0.0
 11
50.505742
 21
35.810336
 31
0.0
  0
LWPOLYLINE
  5
DC
100
AcDbEntity
  8
0
  6
HIDDEN
 62
   174
100
AcDbPolyline
 90
        4
 70
   128
 10
46.705742
 20
47.896536
 10
46.838862
 20
46.842827
 10
47.071945
 20
45.784414
 10
47.398562
 20
44.704324
  0
LWPOLYLINE
  5
DD
100
AcDbEntity
  8
0
  6
HIDDEN
 62
   174
100
AcDbPolyline
 90
        4
 70
   128
 10
258.012921
 20
36.955451
 10
258.340822
 20
38.04042
 10
258.573576
 20
39.099419
 10
258.705742
 20
40.147663
  0
LWPOLYLINE
  5
DE
100
AcDbEntity
  8
0
  6
HIDDEN
 62
   174
100
AcDbPolyline
 90
        4
 70
   128
 10
239.205742
 20
37.294257
 10
239.193182
 20
37.020034
 10
239.172777
 20
36.850747
 10
239.163781
 20
36.794257
  0
LINE
  5
DF
100
AcDbEntity
  8
0
  6
HIDDEN
 62
   174
100
AcDbLine
 10
58.005742
 20
39.71478
 30
0.0
 11
58.005742
 21
36.794257
 31
0.0
  0
LINE
  5
E0
100
AcDbEntity
  8
0
  6
Continuous
 62
   174
100
AcDbLine
 10
95.223875
 20
37.294257
 30
0.0
 11
92.223925
 21
37.294257
 31
0.0
  0
ARC
  5
E1
100
AcDbEntity
  8
0
  6
Continuous
 62
   174
100
AcDbCircle
 10
106.705742
 20
44.794257
 30
0.0
 40
3.0
100
AcDbArc
 50
-270.0
 51
-225.0
  0
LINE
  5
E2
100
AcDbEntity
  8
0
  6
HIDDEN
 62
   174
100
AcDbLine
 10
254.905742
 20
36.955451
 30
0.0
 11
254.905742
 21
44.884191
 31
0.0
  0
LINE
  5
E3
100
AcDbEntity
  8
0
  6
Continuous
 62
   174
100
AcDbLine
 10
58.005742
 20
53.406887
 30
0.0
 11
64.205742
 21
53.406887
 31
0.0
  0
ARC
  5
E4
100
AcDbEntity
  8
0
  6
Continuous
 62
   174
100
AcDbCircle
 10
198.705742
 20
44.794257
 30
0.0
 40
2.5
100
AcDbArc
 50
-39.23152
 51
39.23152
  0
LINE
  5
E5
100
AcDbEntity
  8
0
  6
HIDDEN
 62
   174
100
AcDbLine
 10
58.005742
 20
36.180056
 30
0.0
 11
64.205742
 21
36.180056
 31
0.0
  0
LWPOLYLINE
  5
E6
100
AcDbEntity
  8
0
  6
Continuous
 62
   174
100
AcDbPolyline
 90
        4
 70
   128
 10
47.398562
 20
44.704324
 10
47.070661
 20
45.789293
 10
46.837907
 20
46.848292
 10
46.705742
 20
47.896536
  0
LINE
  5
E7
100
AcDbEntity
  8
0
  6
Continuous
 62
   174
100
AcDbLine
 10
254.905742
 20
35.810336
 30
0.0
 11
254.905742
 21
36.971483
 31
0.0
  0
LINE
  5
E8
100
AcDbEntity
  8
0
  6
Continuous
 62
   174
100
AcDbLine
 10
50.505742
 20
52.633064
 30
0.0
 11
47.398562
 21
52.633064
 31
0.0
  0
LINE
  5
E9
100
AcDbEntity
  8
0
  6
Continuous
 62
   174
100
AcDbLine
 10
69.205742
 20
34.294257
 30
0.0
 11
92.205742
 21
34.294257
 31
0.0
  0
LINE
  5
EA
100
AcDbEntity
  8
0
  6
Continuous
 62
   174
100
AcDbLine
 10
251.205742
 20
51.416151
 30
0.0
 11
251.205742
 21
52.809485
 31
0.0
  0
LINE
  5
EB
100
AcDbEntity
  8
0
  6
HIDDEN
 62
   174
100
AcDbLine
 10
247.405742
 20
42.292139
 30
0.0
 11
241.205742
 21
42.292139
 31
0.0
  0
LINE
  5
EC
100
AcDbEntity
  8
0
  6
Continuous
 62
   174
100
AcDbLine
 10
92.205742
 20
34.310573
 30
0.0
 11
92.205742
 21
37.310311
 31
0.0
  0
LINE
  5
ED
100
AcDbEntity
  8
0
  6
Continuous
 62
   174
100
AcDbLine
 10
236.205742
 20
55.309373
 30
0.0
 11
236.205742
 21
52.309423
 31
0.0
  0
LINE
  5
EE
100
AcDbEntity
  8
0
  6
Continuous
 62
   174
100
AcDbLine
 10
251.205742
 20
38.203795
 30
0.0
 11
251.205742
 21
51.416151
 31
0.0
  0
ARC
  5
EF
100
AcDbEntity
  8
0
  6
Continuous
 62
   174
100
AcDbCircle
 10
106.705742
 20
44.794257
 30
0.0
 40
2.5
100
AcDbArc
 50
-140.76848
 51
-101.536959
  0
LWPOLYLINE
  5
F0
100
AcDbEntity
  8
0
  6
Continuous
 62
   174
100
AcDbPolyline
 90
        4
 70
   128
 10
258.012921
 20
44.884191
 10
258.340822
 20
43.799222
 10
258.573576
 20
42.740223
 10
258.705742
 20
41.691979
  0
LINE
  5
F1
100
AcDbEntity
  8
0
  6
Continuous
 62
   174
100
AcDbLine
 10
58.005742
 20
36.794257
 30
0.0
 11
58.005742
 21
36.179861
 31
0.0
  0
LINE
  5
F2
100
AcDbEntity
  8
0
  6
HIDDEN
 62
   174
100
AcDbLine
 10
247.405742
 20
39.733723
 30
0.0
 11
247.405742
 21
42.31221
 31
0.0
  0
LWPOLYLINE
  5
F3
100
AcDbEntity
  8
0
  6
Continuous
 62
   174
100
AcDbPolyline
 90
        7
 70
   128
 10
47.398562
 20
37.045385
 10
47.032435
 20
38.347351
 10
46.804337
 20
39.623953
 10
46.727434
 20
40.874923
 10
46.804352
 20
42.125878
 10
47.032453
 20
43.402433
 10
47.398562
 20
44.704324
  0
LINE
  5
F4
100
AcDbEntity
  8
0
  6
Continuous
 62
   174
100
AcDbLine
 10
241.205742
 20
34.923012
 30
0.0
 11
241.205742
 21
34.810423
 31
0.0
  0
LINE
  5
F5
100
AcDbEntity
  8
0
  6
Continuous
 62
   174
100
AcDbLine
 10
46.705742
 20
47.896536
 30
0.0
 11
46.705742
 21
49.440852
 31
0.0
  0
LINE
  5
F6
100
AcDbEntity
  8
0
  6
Continuous
 62
   174
100
AcDbLine
 10
46.746069
 20
52.633064
 30
0.0
 11
46.822544
 21
52.633064
 31
0.0
  0
LINE
  5
F7
100
AcDbEntity
  8
0
  6
HIDDEN
 62
   174
100
AcDbLine
 10
247.405742
 20
49.873734
 30
0.0
 11
247.405742
 21
52.794257
 31
0.0
  0
LINE
  5
F8
100
AcDbEntity
  8
0
  6
HIDDEN
 62
   174
100
AcDbLine
 10
239.705742
 20
52.794257
 30
0.0
 11
239.705742
 21
36.794257
 31
0.0
  0
ARC
  5
F9
100
AcDbEntity
  8
0
  6
Continuous
 62
   174
100
AcDbCircle
 10
198.705742
 20
44.794257
 30
0.0
 40
3.0
100
AcDbArc
 50
-45.0
 51
45.0
  0
ARC
  5
FA
100
AcDbEntity
  8
0
  6
Continuous
 62
   174
100
AcDbCircle
 10
198.705742
 20
44.794257
 30
0.0
 40
2.5
100
AcDbArc
 50
-78.463041
 51
-39.23152
  0
LINE
  5
FB
100
AcDbEntity
  8
0
  6
Continuous
 62
   174
100
AcDbLine
 10
64.705742
 20
54.794257
 30
0.0
 11
65.705742
 21
54.794257
 31
0.0
  0
LINE
  5
FC
100
AcDbEntity
  8
0
  6
Continuous
 62
   174
100
AcDbLine
 10
241.205742
 20
34.794257
 30
0.0
 11
240.705742
 21
34.794257
 31
0.0
  0
LINE
  5
FD
100
AcDbEntity
  8
0
  6
HIDDEN
 62
   174
100
AcDbLine
 10
247.405742
 20
47.311135
 30
0.0
 11
247.405742
 21
49.889197
 31
0.0
  0
ARC
  5
FE
100
AcDbEntity
  8
0
  6
Continuous
 62
   174
100
AcDbCircle
 10
92.205742
 20
37.294257
 30
0.0
 40
3.0
100
AcDbArc
 50
-90.0
 51
0.0
  0
ARC
  5
FF
100
AcDbEntity
  8
0
  6
Continuous
 62
   174
100
AcDbCircle
 10
198.705742
 20
44.794257
 30
0.0
 40
2.5
100
AcDbArc
 50
-140.76848
 51
-101.536959
  0
LINE
  5
100
100
AcDbEntity
  8
0
  6
Continuous
 62
   174
100
AcDbLine
 10
58.005742
 20
53.406887
 30
0.0
 11
58.005742
 21
52.794257
 31
0.0
  0
LINE
  5
101
100
AcDbEntity
  8
0
  6
Continuous
 62
   174
100
AcDbLine
 10
64.705742
 20
54.794257
 30
0.0
 11
65.705742
 21
54.794257
 31
0.0
  0
ARC
  5
102
100
AcDbEntity
  8
0
  6
Continuous
 62
   174
100
AcDbCircle
 10
198.705742
 20
44.794257
 30
0.0
 40
2.5
100
AcDbArc
 50
-219.23152
 51
-140.76848
  0
LINE
  5
103
100
AcDbEntity
  8
0
  6
HIDDEN
 62
   174
100
AcDbLine
 10
247.405742
 20
53.408459
 30
0.0
 11
241.205742
 21
53.408459
 31
0.0
  0
LINE
  5
104
100
AcDbEntity
  8
0
  6
Continuous
 62
   174
100
AcDbLine
 10
247.405742
 20
54.476716
 30
0.0
 11
241.205742
 21
54.476716
 31
0.0
  0
LINE
  5
105
100
AcDbEntity
  8
0
  6
HIDDEN
 62
   174
100
AcDbLine
 10
58.005742
 20
39.71478
 30
0.0
 11
64.205742
 21
39.71478
 31
0.0
  0
ARC
  5
106
100
AcDbEntity
  8
0
  6
Continuous
 62
   174
100
AcDbCircle
 10
236.205742
 20
52.294257
 30
0.0
 40
3.0
100
AcDbArc
 50
0.0
 51
90.0
  0
LINE
  5
107
100
AcDbEntity
  8
0
  6
HIDDEN
 62
   174
100
AcDbLine
 10
209.705742
 20
44.809973
 30
0.0
 11
209.705742
 21
49.309685
 31
0.0
  0
LINE
  5
108
100
AcDbEntity
  8
0
  6
Continuous
 62
   174
100
AcDbLine
 10
65.705742
 20
55.794257
 30
0.0
 11
95.705742
 21
55.794257
 31
0.0
  0
LINE
  5
109
100
AcDbEntity
  8
0
  6
Continuous
 62
   174
100
AcDbLine
 10
247.405742
 20
35.128857
 30
0.0
 11
247.405742
 21
36.19781
 31
0.0
  0
LINE
  5
10A
100
AcDbEntity
  8
0
  6
HIDDEN
 62
   174
100
AcDbLine
 10
247.405742
 20
49.873734
 30
0.0
 11
241.205742
 21
49.873734
 31
0.0
  0
LWPOLYLINE
  5
10B
100
AcDbEntity
  8
0
  6
Continuous
 62
   174
100
AcDbPolyline
 90
        6
 70
   128
 10
69.205742
 20
44.794257
 10
68.300426
 20
46.283617
 10
67.49212
 20
47.677366
 10
66.830273
 20
48.956028
 10
66.378447
 20
50.082132
 10
66.205742
 20
51.039255
  0
LINE
  5
10C
100
AcDbEntity
  8
0
  6
Continuous
 62
   174
100
AcDbLine
 10
64.205742
 20
54.794257
 30
0.0
 11
64.705742
 21
54.794257
 31
0.0
  0
LINE
  5
10D
100
AcDbEntity
  8
0
  6
HIDDEN
 62
   174
100
AcDbLine
 10
233.705742
 20
40.810111
 30
0.0
 11
233.705742
 21
44.809973
 31
0.0
  0
LINE
  5
10E
100
AcDbEntity
  8
0
  6
Continuous
 62
   174
100
AcDbLine
 10
92.223925
 20
52.294257
 30
0.0
 11
95.223875
 21
52.294257
 31
0.0
  0
LINE
  5
10F
100
AcDbEntity
  8
0
  6
Continuous
 62
   174
100
AcDbLine
 10
258.705742
 20
37.010358
 30
0.0
 11
258.705742
 21
40.163683
 31
0.0
  0
LINE
  5
110
100
AcDbEntity
  8
0
  6
Continuous
 62
   174
100
AcDbLine
 10
247.405742
 20
53.408654
 30
0.0
 11
241.205742
 21
53.408654
 31
0.0
  0
LINE
  5
111
100
AcDbEntity
  8
0
  6
HIDDEN
 62
   174
100
AcDbLine
 10
58.005742
 20
47.292139
 30
0.0
 11
64.205742
 21
47.292139
 31
0.0
  0
LINE
  5
112
100
AcDbEntity
  8
0
  6
Continuous
 62
   174
100
AcDbLine
 10
213.205742
 20
37.310311
 30
0.0
 11
213.205742
 21
34.310573
 31
0.0
  0
ARC
  5
113
100
AcDbEntity
  8
0
  6
Continuous
 62
   174
100
AcDbCircle
 10
106.705742
 20
44.794257
 30
0.0
 40
3.0
100
AcDbArc
 50
-135.0
 51
-90.0
  0
LINE
  5
114
100
AcDbEntity
  8
0
  6
Continuous
 62
   174
100
AcDbLine
 10
50.505742
 20
44.704324
 30
0.0
 11
47.398562
 21
44.704324
 31
0.0
  0
LINE
  5
115
100
AcDbEntity
  8
0
  6
HIDDEN
 62
   174
100
AcDbLine
 10
58.005742
 20
42.293009
 30
0.0
 11
64.205742
 21
42.293009
 31
0.0
  0
LINE
  5
116
100
AcDbEntity
  8
0
  6
HIDDEN
 62
   174
100
AcDbLine
 10
247.405742
 20
42.296375
 30
0.0
 11
247.405742
 21
47.295506
 31
0.0
  0
LINE
  5
117
100
AcDbEntity
  8
0
  6
Continuous
 62
   174
100
AcDbLine
 10
69.205742
 20
37.294257
 30
0.0
 11
69.205742
 21
44.794257
 31
0.0
  0
LINE
  5
118
100
AcDbEntity
  8
0
  6
Continuous
 62
   174
100
AcDbLine
 10
241.205742
 20
35.128857
 30
0.0
 11
241.205742
 21
34.923012
 31
0.0
  0
ARC
  5
119
100
AcDbEntity
  8
0
  6
Continuous
 62
   174
100
AcDbCircle
 10
198.705742
 20
44.794257
 30
0.0
 40
3.0
100
AcDbArc
 50
-225.0
 51
-135.0
  0
LWPOLYLINE
  5
11A
100
AcDbEntity
  8
0
  6
HIDDEN
 62
   174
100
AcDbPolyline
 90
        7
 70
   128
 10
258.012921
 20
44.884191
 10
258.379048
 20
46.186157
 10
258.607146
 20
47.462759
 10
258.684049
 20
48.71373
 10
258.607131
 20
49.964685
 10
258.379031
 20
51.241239
 10
258.012921
 20
52.54313
  0
LINE
  5
11B
100
AcDbEntity
  8
0
  6
HIDDEN
 62
   174
100
AcDbLine
 10
241.205742
 20
52.835614
 30
0.0
 11
241.205742
 21
49.889197
 31
0.0
  0
ARC
  5
11C
100
AcDbEntity
  8
0
  6
Continuous
 62
   174
100
AcDbCircle
 10
213.205742
 20
52.294257
 30
0.0
 40
3.0
100
AcDbArc
 50
-270.0
 51
-180.0
  0
LINE
  5
11D
100
AcDbEntity
  8
0
  6
Continuous
 62
   174
100
AcDbLine
 10
66.205742
 20
52.294257
 30
0.0
 11
66.205742
 21
51.039255
 31
0.0
  0
LINE
  5
11E
100
AcDbEntity
  8
0
  6
HIDDEN
 62
   174
100
AcDbLine
 10
58.005742
 20
42.308811
 30
0.0
 11
58.005742
 21
39.730749
 31
0.0
  0
LINE
  5
11F
100
AcDbEntity
  8
0
  6
Continuous
 62
   174
100
AcDbLine
 10
247.405742
 20
35.112669
 30
0.0
 11
241.205742
 21
35.112669
 31
0.0
  0
LINE
  5
120
100
AcDbEntity
  8
0
  6
Continuous
 62
   174
100
AcDbLine
 10
64.205742
 20
52.835614
 30
0.0
 11
64.205742
 21
53.422136
 31
0.0
  0
LINE
  5
121
100
AcDbEntity
  8
0
  6
Continuous
 62
   174
100
AcDbLine
 10
210.205742
 20
52.294257
 30
0.0
 11
210.205742
 21
37.294257
 31
0.0
  0
LINE
  5
122
100
AcDbEntity
  8
0
  6
Continuous
 62
   174
100
AcDbLine
 10
51.205742
 20
51.523641
 30
0.0
 11
51.205742
 21
53.809398
 31
0.0
  0
LWPOLYLINE
  5
123
100
AcDbEntity
  8
0
  6
Continuous
 62
   174
100
AcDbPolyline
 90
        6
 70
   128
 10
66.205742
 20
38.549259
 10
66.378084
 20
39.505221
 10
66.829884
 20
40.631661
 10
67.492955
 20
41.912651
 10
68.301485
 20
43.306668
 10
69.205742
 20
44.794257
  0
LINE
  5
124
100
AcDbEntity
  8
0
  6
Continuous
 62
   174
100
AcDbLine
 10
213.205742
 20
37.294257
 30
0.0
 11
213.205742
 21
52.294257
 31
0.0
  0
LINE
  5
125
100
AcDbEntity
  8
0
  6
Continuous
 62
   174
100
AcDbLine
 10
254.905742
 20
44.899831
 30
0.0
 11
254.905742
 21
52.558392
 31
0.0
  0
ARC
  5
126
100
AcDbEntity
  8
0
  6
Continuous
 62
   174
100
AcDbCircle
 10
198.705742
 20
44.794257
 30
0.0
 40
2.5
100
AcDbArc
 50
-258.463041
 51
-219.23152
  0
LWPOLYLINE
  5
127
100
AcDbEntity
  8
0
  6
Continuous
 62
   174
100
AcDbPolyline
 90
        4
 70
   128
 10
46.705742
 20
37.045385
 10
46.838862
 20
37.045385
 10
47.071947
 20
37.045385
 10
47.398562
 20
37.045385
  0
LINE
  5
128
100
AcDbEntity
  8
0
  6
HIDDEN
 62
   174
100
AcDbLine
 10
241.205742
 20
39.713209
 30
0.0
 11
241.205742
 21
36.17829
 31
0.0
  0
LINE
  5
129
100
AcDbEntity
  8
0
  6
HIDDEN
 62
   174
100
AcDbLine
 10
64.205742
 20
42.295506
 30
0.0
 11
64.205742
 21
47.296376
 31
0.0
  0
LINE
  5
12A
100
AcDbEntity
  8
0
  6
HIDDEN
 62
   174
100
AcDbLine
 10
58.005742
 20
49.875306
 30
0.0
 11
64.205742
 21
49.875306
 31
0.0
  0
LINE
  5
12B
100
AcDbEntity
  8
0
  6
HIDDEN
 62
   174
100
AcDbLine
 10
66.205742
 20
37.310311
 30
0.0
 11
66.205742
 21
52.309423
 31
0.0
  0
LINE
  5
12C
100
AcDbEntity
  8
0
  6
Continuous
 62
   174
100
AcDbLine
 10
258.705742
 20
41.707844
 30
0.0
 11
258.705742
 21
52.558392
 31
0.0
  0
LINE
  5
12D
100
AcDbEntity
  8
0
  6
HIDDEN
 62
   174
100
AcDbLine
 10
247.405742
 20
36.17829
 30
0.0
 11
241.205742
 21
36.17829
 31
0.0
  0
LINE
  5
12E
100
AcDbEntity
  8
0
  6
Continuous
 62
   174
100
AcDbLine
 10
247.405742
 20
52.794257
 30
0.0
 11
247.405742
 21
53.408654
 31
0.0
  0
LINE
  5
12F
100
AcDbEntity
  8
0
  6
HIDDEN
 62
   174
100
AcDbLine
 10
58.005742
 20
47.292139
 30
0.0
 11
58.005742
 21
42.293009
 31
0.0
  0
LINE
  5
130
100
AcDbEntity
  8
0
  6
Continuous
 62
   174
100
AcDbLine
 10
213.205742
 20
34.294257
 30
0.0
 11
236.205742
 21
34.294257
 31
0.0
  0
ARC
  5
131
100
AcDbEntity
  8
0
  6
Continuous
 62
   174
100
AcDbCircle
 10
69.205742
 20
37.294257
 30
0.0
 40
3.0
100
AcDbArc
 50
-180.0
 51
-90.0
  0
ARC
  5
132
100
AcDbEntity
  8
0
  6
Continuous
 62
   174
100
AcDbCircle
 10
236.205742
 20
37.294257
 30
0.0
 40
3.0
100
AcDbArc
 50
-90.0
 51
0.0
  0
LINE
  5
133
100
AcDbEntity
  8
0
  6
Continuous
 62
   174
100
AcDbLine
 10
106.205742
 20
47.243747
 30
0.0
 11
106.205742
 21
42.344768
 31
0.0
  0
LINE
  5
134
100
AcDbEntity
  8
0
  6
Continuous
 62
   174
100
AcDbLine
 10
92.205742
 20
37.294257
 30
0.0
 11
69.205742
 21
37.294257
 31
0.0
  0
LINE
  5
135
100
AcDbEntity
  8
0
  6
HIDDEN
 62
   174
100
AcDbLine
 10
64.205742
 20
42.308811
 30
0.0
 11
64.205742
 21
47.307736
 31
0.0
  0
LINE
  5
136
100
AcDbEntity
  8
0
  6
Continuous
 62
   174
100
AcDbLine
 10
241.205742
 20
36.784119
 30
0.0
 11
241.205742
 21
36.19781
 31
0.0
  0
LINE
  5
137
100
AcDbEntity
  8
0
  6
Continuous
 62
   174
100
AcDbLine
 10
65.705742
 20
52.794257
 30
0.0
 11
65.705742
 21
55.794257
 31
0.0
  0
LINE
  5
138
100
AcDbEntity
  8
0
  6
HIDDEN
 62
   174
100
AcDbLine
 10
254.905742
 20
44.884191
 30
0.0
 11
258.012921
 21
44.884191
 31
0.0
  0
LINE
  5
139
100
AcDbEntity
  8
0
  6
HIDDEN
 62
   174
100
AcDbLine
 10
64.205742
 20
49.875306
 30
0.0
 11
64.205742
 21
53.410225
 31
0.0
  0
LINE
  5
13A
100
AcDbEntity
  8
0
  6
HIDDEN
 62
   174
100
AcDbLine
 10
64.205742
 20
36.180056
 30
0.0
 11
64.205742
 21
39.716205
 31
0.0
  0
LINE
  5
13B
100
AcDbEntity
  8
0
  6
Continuous
 62
   174
100
AcDbLine
 10
254.905742
 20
36.955451
 30
0.0
 11
258.012921
 21
36.955451
 31
0.0
  0
LINE
  5
13C
100
AcDbEntity
  8
0
  6
Continuous
 62
   174
100
AcDbLine
 10
64.705742
 20
34.794257
 30
0.0
 11
65.705742
 21
34.794257
 31
0.0
  0
LINE
  5
13D
100
AcDbEntity
  8
0
  6
Continuous
 62
   174
100
AcDbLine
 10
92.205742
 20
52.294257
 30
0.0
 11
92.205742
 21
37.294257
 31
0.0
  0
LINE
  5
13E
100
AcDbEntity
  8
0
  6
HIDDEN
 62
   174
100
AcDbLine
 10
50.505742
 20
44.704324
 30
0.0
 11
50.505742
 21
37.045385
 31
0.0
  0
LINE
  5
13F
100
AcDbEntity
  8
0
  6
HIDDEN
 62
   174
100
AcDbLine
 10
64.205742
 20
36.784332
 30
0.0
 11
64.205742
 21
39.730749
 31
0.0
  0
ARC
  5
140
100
AcDbEntity
  8
0
  6
Continuous
 62
   174
100
AcDbCircle
 10
92.205742
 20
52.294257
 30
0.0
 40
3.0
100
AcDbArc
 50
-360.0
 51
-270.0
  0
LINE
  5
141
100
AcDbEntity
  8
0
  6
Continuous
 62
   174
100
AcDbLine
 10
251.205742
 20
36.810461
 30
0.0
 11
251.205742
 21
38.203795
 31
0.0
  0
LWPOLYLINE
  5
142
100
AcDbEntity
  8
0
  6
HIDDEN
 62
   174
100
AcDbPolyline
 90
        4
 70
   128
 10
66.247702
 20
36.794257
 10
66.238706
 20
36.850745
 10
66.218301
 20
37.020032
 10
66.205742
 20
37.294257
  0
LINE
  5
143
100
AcDbEntity
  8
0
  6
Continuous
 62
   174
100
AcDbLine
 10
65.705742
 20
33.794257
 30
0.0
 11
65.705742
 21
36.794257
 31
0.0
  0
LINE
  5
144
100
AcDbEntity
  8
0
  6
Continuous
 62
   174
100
AcDbLine
 10
51.205742
 20
38.096093
 30
0.0
 11
51.205742
 21
51.523641
 31
0.0
  0
LINE
  5
145
100
AcDbEntity
  8
0
  6
Continuous
 62
   174
100
AcDbLine
 10
69.205742
 20
34.310573
 30
0.0
 11
69.205742
 21
37.310311
 31
0.0
  0
LINE
  5
146
100
AcDbEntity
  8
0
  6
Continuous
 62
   174
100
AcDbLine
 10
236.205742
 20
55.294257
 30
0.0
 11
213.205742
 21
55.294257
 31
0.0
  0
LINE
  5
147
100
AcDbEntity
  8
0
  6
HIDDEN
 62
   174
100
AcDbLine
 10
149.423933
 20
59.794257
 30
0.0
 11
156.02395
 21
59.794257
 31
0.0
  0
LINE
  5
148
100
AcDbEntity
  8
0
  6
Continuous
 62
   174
100
AcDbLine
 10
50.505742
 20
52.64825
 30
0.0
 11
50.505742
 21
44.719902
 31
0.0
  0
LINE
  5
149
100
AcDbEntity
  8
0
  6
Continuous
 62
   174
100
AcDbLine
 10
254.905742
 20
36.971483
 30
0.0
 11
254.905742
 21
44.899831
 31
0.0
  0
ARC
  5
14A
100
AcDbEntity
  8
0
  6
Continuous
 62
   174
100
AcDbCircle
 10
106.705742
 20
44.794257
 30
0.0
 40
2.5
100
AcDbArc
 50
-258.463041
 51
-219.23152
  0
LINE
  5
14B
100
AcDbEntity
  8
0
  6
Continuous
 62
   174
100
AcDbLine
 10
64.205742
 20
34.794257
 30
0.0
 11
64.705742
 21
34.794257
 31
0.0
  0
LINE
  5
14C
100
AcDbEntity
  8
0
  6
Continuous
 62
   174
100
AcDbLine
 10
239.205742
 20
37.294257
 30
0.0
 11
239.205742
 21
38.549259
 31
0.0
  0
LINE
  5
14D
100
AcDbEntity
  8
0
  6
Continuous
 62
   174
100
AcDbLine
 10
58.005742
 20
54.490876
 30
0.0
 11
58.005742
 21
53.422136
 31
0.0
  0
LWPOLYLINE
  5
14E
100
AcDbEntity
  8
0
  6
HIDDEN
 62
   174
100
AcDbPolyline
 90
        4
 70
   128
 10
66.205742
 20
52.294257
 10
66.218301
 20
52.568481
 10
66.238706
 20
52.737767
 10
66.247702
 20
52.794257
  0
LINE
  5
14F
100
AcDbEntity
  8
0
  6
Continuous
 62
   174
100
AcDbLine
 10
58.005742
 20
54.475846
 30
0.0
 11
64.205742
 21
54.475846
 31
0.0
  0
LINE
  5
150
100
AcDbEntity
  8
0
  6
HIDDEN
 62
   174
100
AcDbLine
 10
247.405742
 20
36.794257
 30
0.0
 11
247.405742
 21
39.717775
 31
0.0
  0
LINE
  5
151
100
AcDbEntity
  8
0
  6
Continuous
 62
   174
100
AcDbLine
 10
66.205742
 20
38.549259
 30
0.0
 11
66.205742
 21
37.294257
 31
0.0
  0
LINE
  5
152
100
AcDbEntity
  8
0
  6
Continuous
 62
   174
100
AcDbLine
 10
69.223813
 20
52.294257
 30
0.0
 11
66.223863
 21
52.294257
 31
0.0
  0
LINE
  5
153
100
AcDbEntity
  8
0
  6
HIDDEN
 62
   174
100
AcDbLine
 10
64.205742
 20
49.886223
 30
0.0
 11
64.205742
 21
52.835614
 31
0.0
  0
LINE
  5
154
100
AcDbEntity
  8
0
  6
HIDDEN
 62
   174
100
AcDbLine
 10
71.705742
 20
44.809973
 30
0.0
 11
71.705742
 21
40.810111
 31
0.0
  0
LINE
  5
155
100
AcDbEntity
  8
0
  6
Continuous
 62
   174
100
AcDbLine
 10
258.012921
 20
52.54313
 30
0.0
 11
254.905742
 21
52.54313
 31
0.0
  0
LINE
  5
156
100
AcDbEntity
  8
0
  6
Continuous
 62
   174
100
AcDbLine
 10
46.705742
 20
52.609375
 30
0.0
 11
46.705742
 21
49.456263
 31
0.0
  0
LINE
  5
157
100
AcDbEntity
  8
0
  6
Continuous
 62
   174
100
AcDbLine
 10
209.705742
 20
55.794257
 30
0.0
 11
239.705742
 21
55.794257
 31
0.0
  0
LINE
  5
158
100
AcDbEntity
  8
0
  6
HIDDEN
 62
   174
100
AcDbLine
 10
241.205742
 20
39.733723
 30
0.0
 11
241.205742
 21
36.784119
 31
0.0
  0
LINE
  5
159
100
AcDbEntity
  8
0
  6
Continuous
 62
   174
100
AcDbLine
 10
47.398562
 20
37.045385
 30
0.0
 11
50.505742
 21
37.045385
 31
0.0
  0
LINE
  5
15A
100
AcDbEntity
  8
0
  6
HIDDEN
 62
   174
100
AcDbLine
 10
247.405742
 20
39.713209
 30
0.0
 11
241.205742
 21
39.713209
 31
0.0
  0
LINE
  5
15B
100
AcDbEntity
  8
0
  6
Continuous
 62
   174
100
AcDbLine
 10
58.005742
 20
35.111799
 30
0.0
 11
64.205742
 21
35.111799
 31
0.0
  0
LINE
  5
15C
100
AcDbEntity
  8
0
  6
HIDDEN
 62
   174
100
AcDbLine
 10
239.205742
 20
52.309423
 30
0.0
 11
239.205742
 21
37.310311
 31
0.0
  0
LINE
  5
15D
100
AcDbEntity
  8
0
  6
HIDDEN
 62
   174
100
AcDbLine
 10
209.705742
 20
40.310261
 30
0.0
 11
209.705742
 21
44.809973
 31
0.0
  0
ARC
  5
15E
100
AcDbEntity
  8
0
  6
Continuous
 62
   174
100
AcDbCircle
 10
106.705742
 20
44.794257
 30
0.0
 40
3.0
100
AcDbArc
 50
-225.0
 51
-135.0
  0
LINE
  5
15F
100
AcDbEntity
  8
0
  6
HIDDEN
 62
   174
100
AcDbLine
 10
58.005742
 20
53.410225
 30
0.0
 11
64.205742
 21
53.410225
 31
0.0
  0
LINE
  5
160
100
AcDbEntity
  8
0
  6
Continuous
 62
   174
100
AcDbLine
 10
213.205742
 20
52.294257
 30
0.0
 11
236.205742
 21
52.294257
 31
0.0
  0
LINE
  5
161
100
AcDbEntity
  8
0
  6
Continuous
 62
   174
100
AcDbLine
 10
247.405742
 20
53.423836
 30
0.0
 11
247.405742
 21
54.491939
 31
0.0
  0
LINE
  5
162
100
AcDbEntity
  8
0
  6
Continuous
 62
   174
100
AcDbLine
 10
258.705742
 20
41.691979
 30
0.0
 11
258.705742
 21
40.147663
 31
0.0
  0
LINE
  5
163
100
AcDbEntity
  8
0
  6
HIDDEN
 62
   174
100
AcDbLine
 10
247.405742
 20
39.717775
 30
0.0
 11
241.205742
 21
39.717775
 31
0.0
  0
ARC
  5
164
100
AcDbEntity
  8
0
  6
Continuous
 62
   174
100
AcDbCircle
 10
213.205742
 20
37.294257
 30
0.0
 40
3.0
100
AcDbArc
 50
-180.0
 51
-90.0
  0
LINE
  5
165
100
AcDbEntity
  8
0
  6
Continuous
 62
   174
100
AcDbLine
 10
258.701815
 20
36.955451
 30
0.0
 11
258.625127
 21
36.955451
 31
0.0
  0
LINE
  5
166
100
AcDbEntity
  8
0
  6
Continuous
 62
   174
100
AcDbLine
 10
239.705742
 20
55.794257
 30
0.0
 11
239.705742
 21
52.794257
 31
0.0
  0
LINE
  5
167
100
AcDbEntity
  8
0
  6
HIDDEN
 62
   174
100
AcDbLine
 10
140.023863
 20
29.794257
 30
0.0
 11
133.423846
 21
29.794257
 31
0.0
  0
ARC
  5
168
100
AcDbEntity
  8
0
  6
Continuous
 62
   174
100
AcDbCircle
 10
106.705742
 20
44.794257
 30
0.0
 40
2.5
100
AcDbArc
 50
-219.23152
 51
-140.76848
  0
LINE
  5
169
100
AcDbEntity
  8
0
  6
Continuous
 62
   174
100
AcDbLine
 10
58.005742
 20
36.19611
 30
0.0
 11
58.005742
 21
35.128007
 31
0.0
  0
LWPOLYLINE
  5
16A
100
AcDbEntity
  8
0
  6
HIDDEN
 62
   174
100
AcDbPolyline
 90
        4
 70
   128
 10
47.398562
 20
52.633064
 10
47.070661
 20
51.548094
 10
46.837907
 20
50.489096
 10
46.705742
 20
49.440852
  0
LINE
  5
16B
100
AcDbEntity
  8
0
  6
HIDDEN
 62
   174
100
AcDbLine
 10
58.005742
 20
39.716205
 30
0.0
 11
64.205742
 21
39.716205
 31
0.0
  0
LINE
  5
16C
100
AcDbEntity
  8
0
  6
Continuous
 62
   174
100
AcDbLine
 10
213.223746
 20
37.294257
 30
0.0
 11
210.223796
 21
37.294257
 31
0.0
  0
LINE
  5
16D
100
AcDbEntity
  8
0
  6
Continuous
 62
   174
100
AcDbLine
 10
51.205742
 20
35.810336
 30
0.0
 11
51.205742
 21
38.096093
 31
0.0
  0
LINE
  5
16E
100
AcDbEntity
  8
0
  6
Continuous
 62
   174
100
AcDbLine
 10
247.405742
 20
36.181627
 30
0.0
 11
241.205742
 21
36.181627
 31
0.0
  0
LINE
  5
16F
100
AcDbEntity
  8
0
  6
HIDDEN
 62
   174
100
AcDbLine
 10
58.005742
 20
52.794257
 30
0.0
 11
58.005742
 21
49.870739
 31
0.0
  0
ARC
  5
170
100
AcDbEntity
  8
0
  6
Continuous
 62
   174
100
AcDbCircle
 10
69.205742
 20
52.294257
 30
0.0
 40
3.0
100
AcDbArc
 50
-270.0
 51
-180.0
  0
ARC
  5
171
100
AcDbEntity
  8
0
  6
Continuous
 62
   174
100
AcDbCircle
 10
106.705742
 20
44.794257
 30
0.0
 40
3.0
100
AcDbArc
 50
-315.0
 51
-270.0
  0
LINE
  5
172
100
AcDbEntity
  8
0
  6
Continuous
 62
   174
100
AcDbLine
 10
239.705742
 20
36.794257
 30
0.0
 11
239.705742
 21
33.794257
 31
0.0
  0
LINE
  5
173
100
AcDbEntity
  8
0
  6
HIDDEN
 62
   174
100
AcDbLine
 10
165.423808
 20
59.794257
 30
0.0
 11
172.023825
 21
59.794257
 31
0.0
  0
LINE
  5
174
100
AcDbEntity
  8
0
  6
Continuous
 62
   174
100
AcDbLine
 10
50.505742
 20
53.809398
 30
0.0
 11
50.505742
 21
52.64825
 31
0.0
  0
LWPOLYLINE
  5
175
100
AcDbEntity
  8
0
  6
HIDDEN
 62
   174
100
AcDbPolyline
 90
        4
 70
   128
 10
258.705742
 20
41.691979
 10
258.572621
 20
42.745688
 10
258.339538
 20
43.8041
 10
258.012921
 20
44.884191
  0
LINE
  5
176
100
AcDbEntity
  8
0
  6
HIDDEN
 62
   174
100
AcDbLine
 10
241.205742
 20
47.293008
 30
0.0
 11
241.205742
 21
42.292139
 31
0.0
  0
LINE
  5
177
100
AcDbEntity
  8
0
  6
HIDDEN
 62
   174
100
AcDbLine
 10
58.005742
 20
42.295506
 30
0.0
 11
64.205742
 21
42.295506
 31
0.0
  0
LINE
  5
178
100
AcDbEntity
  8
0
  6
Continuous
 62
   174
100
AcDbLine
 10
239.205742
 20
51.039255
 30
0.0
 11
239.205742
 21
52.294257
 31
0.0
  0
LINE
  5
179
100
AcDbEntity
  8
0
  6
Continuous
 62
   174
100
AcDbLine
 10
64.205742
 20
34.923012
 30
0.0
 11
64.205742
 21
35.128007
 31
0.0
  0
LINE
  5
17A
100
AcDbEntity
  8
0
  6
HIDDEN
 62
   174
100
AcDbLine
 10
241.205742
 20
47.311135
 30
0.0
 11
241.205742
 21
42.31221
 31
0.0
  0
LWPOLYLINE
  5
17B
100
AcDbEntity
  8
0
  6
Continuous
 62
   174
100
AcDbPolyline
 90
        4
 70
   128
 10
258.705742
 20
40.147663
 10
258.572621
 20
39.093954
 10
258.339538
 20
38.035542
 10
258.012921
 20
36.955451
  0
LWPOLYLINE
  5
17C
100
AcDbEntity
  8
0
  6
Continuous
 62
   174
100
AcDbPolyline
 90
        6
 70
   128
 10
236.205742
 20
44.794257
 10
237.111057
 20
43.304897
 10
237.919363
 20
41.911148
 10
238.58121
 20
40.632487
 10
239.033036
 20
39.506383
 10
239.205742
 20
38.549259
  0
LINE
  5
17D
100
AcDbEntity
  8
0
  6
HIDDEN
 62
   174
100
AcDbLine
 10
95.705742
 20
44.809973
 30
0.0
 11
95.705742
 21
40.310261
 31
0.0
  0
LINE
  5
17E
100
AcDbEntity
  8
0
  6
Continuous
 62
   174
100
AcDbLine
 10
95.205742
 20
37.294257
 30
0.0
 11
95.205742
 21
52.294257
 31
0.0
  0
LINE
  5
17F
100
AcDbEntity
  8
0
  6
Continuous
 62
   174
100
AcDbLine
 10
254.205742
 20
53.809398
 30
0.0
 11
254.205742
 21
51.523853
 31
0.0
  0
LINE
  5
180
100
AcDbEntity
  8
0
  6
Continuous
 62
   174
100
AcDbLine
 10
247.405742
 20
36.181627
 30
0.0
 11
247.405742
 21
36.794257
 31
0.0
  0
LINE
  5
181
100
AcDbEntity
  8
0
  6
HIDDEN
 62
   174
100
AcDbLine
 10
233.705742
 20
44.809973
 30
0.0
 11
233.705742
 21
48.809623
 31
0.0
  0
ARC
  5
182
100
AcDbEntity
  8
0
  6
Continuous
 62
   174
100
AcDbCircle
 10
106.705742
 20
44.794257
 30
0.0
 40
2.5
100
AcDbArc
 50
-39.23152
 51
39.23152
  0
LINE
  5
183
100
AcDbEntity
  8
0
  6
HIDDEN
 62
   174
100
AcDbLine
 10
247.405742
 20
47.293008
 30
0.0
 11
241.205742
 21
47.293008
 31
0.0
  0
LINE
  5
184
100
AcDbEntity
  8
0
  6
Continuous
 62
   174
100
AcDbLine
 10
58.005742
 20
36.179861
 30
0.0
 11
64.205742
 21
36.179861
 31
0.0
  0
LINE
  5
185
100
AcDbEntity
  8
0
  6
HIDDEN
 62
   174
100
AcDbLine
 10
95.705742
 20
49.309685
 30
0.0
 11
95.705742
 21
44.809973
 31
0.0
  0
LINE
  5
186
100
AcDbEntity
  8
0
  6
HIDDEN
 62
   174
100
AcDbLine
 10
50.505742
 20
44.704324
 30
0.0
 11
47.398562
 21
44.704324
 31
0.0
  0
LWPOLYLINE
  5
187
100
AcDbEntity
  8
0
  6
HIDDEN
 62
   174
100
AcDbPolyline
 90
        7
 70
   128
 10
47.398562
 20
44.704324
 10
47.032435
 20
43.402358
 10
46.804337
 20
42.125756
 10
46.727434
 20
40.874785
 10
46.804352
 20
39.62383
 10
47.032453
 20
38.347275
 10
47.398562
 20
37.045385
  0
LINE
  5
188
100
AcDbEntity
  8
0
  6
Continuous
 62
   174
100
AcDbLine
 10
239.223808
 20
52.294257
 30
0.0
 11
236.223858
 21
52.294257
 31
0.0
  0
LINE
  5
189
100
AcDbEntity
  8
0
  6
Continuous
 62
   174
100
AcDbLine
 10
213.205742
 20
55.309373
 30
0.0
 11
213.205742
 21
52.309423
 31
0.0
  0
ARC
  5
18A
100
AcDbEntity
  8
0
  6
Continuous
 62
   174
100
AcDbCircle
 10
106.705742
 20
44.794257
 30
0.0
 40
2.5
100
AcDbArc
 50
-78.463041
 51
-39.23152
  0
LINE
  5
18B
100
AcDbEntity
  8
0
  6
HIDDEN
 62
   174
100
AcDbLine
 10
58.005742
 20
47.296376
 30
0.0
 11
64.205742
 21
47.296376
 31
0.0
  0
LINE
  5
18C
100
AcDbEntity
  8
0
  6
Continuous
 62
   174
100
AcDbLine
 10
241.205742
 20
53.423836
 30
0.0
 11
241.205742
 21
52.835614
 31
0.0
  0
LINE
  5
18D
100
AcDbEntity
  8
0
  6
Continuous
 62
   174
100
AcDbLine
 10
239.705742
 20
33.794257
 30
0.0
 11
209.705742
 21
33.794257
 31
0.0
  0
ARC
  5
18E
100
AcDbEntity
  8
0
  6
Continuous
 62
   174
100
AcDbCircle
 10
198.705742
 20
44.794257
 30
0.0
 40
3.0
100
AcDbArc
 50
-90.0
 51
-45.0
  0
LINE
  5
18F
100
AcDbEntity
  8
0
  6
HIDDEN
 62
   174
100
AcDbLine
 10
247.405742
 20
42.296375
 30
0.0
 11
241.205742
 21
42.296375
 31
0.0
  0
LINE
  5
190
100
AcDbEntity
  8
0
  6
Continuous
 62
   174
100
AcDbLine
 10
64.205742
 20
54.696934
 30
0.0
 11
64.205742
 21
54.80931
 31
0.0
  0
LINE
  5
191
100
AcDbEntity
  8
0
  6
Continuous
 62
   174
100
AcDbLine
 10
95.705742
 20
33.794257
 30
0.0
 11
65.705742
 21
33.794257
 31
0.0
  0
LINE
  5
192
100
AcDbEntity
  8
0
  6
HIDDEN
 62
   174
100
AcDbLine
 10
58.005742
 20
49.886223
 30
0.0
 11
58.005742
 21
47.307736
 31
0.0
  0
LINE
  5
193
100
AcDbEntity
  8
0
  6
HIDDEN
 62
   174
100
AcDbLine
 10
247.405742
 20
49.87231
 30
0.0
 11
241.205742
 21
49.87231
 31
0.0
  0
LINE
  5
194
100
AcDbEntity
  8
0
  6
HIDDEN
 62
   174
100
AcDbLine
 10
58.005742
 20
49.870739
 30
0.0
 11
64.205742
 21
49.870739
 31
0.0
  0
LINE
  5
195
100
AcDbEntity
  8
0
  6
Continuous
 62
   174
100
AcDbLine
 10
66.223863
 20
37.294257
 30
0.0
 11
69.223813
 21
37.294257
 31
0.0
  0
ARC
  5
196
100
AcDbEntity
  8
0
  6
Continuous
 62
   174
100
AcDbCircle
 10
106.705742
 20
44.794257
 30
0.0
 40
3.0
100
AcDbArc
 50
-45.0
 51
45.0
  0
LINE
  5
197
100
AcDbEntity
  8
0
  6
HIDDEN
 62
   174
100
AcDbLine
 10
50.505742
 20
52.633064
 30
0.0
 11
50.505742
 21
44.704324
 31
0.0
  0
LINE
  5
198
100
AcDbEntity
  8
0
  6
HIDDEN
 62
   174
100
AcDbLine
 10
65.705742
 20
36.794257
 30
0.0
 11
65.705742
 21
52.794257
 31
0.0
  0
LWPOLYLINE
  5
199
100
AcDbEntity
  8
0
  6
Continuous
 62
   174
100
AcDbPolyline
 90
        3
 70
   128
 10
258.012921
 20
36.955451
 10
258.379024
 20
36.955451
 10
258.607123
 20
36.955451
  0
LINE
  5
19A
100
AcDbEntity
  8
0
  6
Continuous
 62
   174
100
AcDbLine
 10
64.205742
 20
36.19611
 30
0.0
 11
64.205742
 21
36.784332
 31
0.0
  0
ARC
  5
19B
100
AcDbEntity
  8
0
  6
Continuous
 62
   174
100
AcDbCircle
 10
198.705742
 20
44.794257
 30
0.0
 40
2.5
100
AcDbArc
 50
-320.76848
 51
-281.536959
  0
LINE
  5
19C
100
AcDbEntity
  8
0
  6
HIDDEN
 62
   174
100
AcDbLine
 10
247.405742
 20
47.295506
 30
0.0
 11
241.205742
 21
47.295506
 31
0.0
  0
LINE
  5
19D
100
AcDbEntity
  8
0
  6
Continuous
 62
   174
100
AcDbLine
 10
240.705742
 20
34.794257
 30
0.0
 11
239.705742
 21
34.794257
 31
0.0
  0
LINE
  5
19E
100
AcDbEntity
  8
0
  6
HIDDEN
 62
   174
100
AcDbLine
 10
133.423846
 20
59.794257
 30
0.0
 11
140.023863
 21
59.794257
 31
0.0
  0
ENDBLK
  5
19F
100
AcDbEntity
  8
0
100
AcDbBlockEnd
  0
BLOCK
  5
1A2
100
AcDbEntity
  8
0
100
AcDbBlockBegin
  2
*B5
 70
     0
 10
0.0
 20
0.0
 30
0.0
  3
*B5
  1

  0
ARC
  5
1A3
100
AcDbEntity
  8
0
  6
Continuous
 62
   174
100
AcDbCircle
 10
168.705742
 20
155.0
 30
0.0
 40
3.3
100
AcDbArc
 50
0.0
 51
180.0
  0
ARC
  5
1A4
100
AcDbEntity
  8
0
  6
Continuous
 62
   174
100
AcDbCircle
 10
168.705742
 20
155.0
 30
0.0
 40
3.3
100
AcDbArc
 50
-180.0
 51
0.0
  0
ARC
  5
1A5
100
AcDbEntity
  8
0
  6
Continuous
 62
   174
100
AcDbCircle
 10
152.705742
 20
115.0
 30
0.0
 40
3.3
100
AcDbArc
 50
0.0
 51
180.0
  0
ARC
  5
1A6
100
AcDbEntity
  8
0
  6
Continuous
 62
   174
100
AcDbCircle
 10
152.705742
 20
115.0
 30
0.0
 40
3.3
100
AcDbArc
 50
-180.0
 51
0.0
  0
LINE
  5
1A7
100
AcDbEntity
  8
0
  6
HIDDEN
 62
   174
100
AcDbLine
 10
83.748917
 20
180.95
 30
0.0
 11
83.748917
 21
181.0
 31
0.0
  0
LINE
  5
1A8
100
AcDbEntity
  8
0
  6
HIDDEN
 62
   174
100
AcDbLine
 10
76.948917
 20
180.95
 30
0.0
 11
76.948917
 21
181.0
 31
0.0
  0
LINE
  5
1A9
100
AcDbEntity
  8
0
  6
HIDDEN
 62
   174
100
AcDbLine
 10
221.662566
 20
180.95
 30
0.0
 11
221.662566
 21
181.0
 31
0.0
  0
LINE
  5
1AA
100
AcDbEntity
  8
0
  6
HIDDEN
 62
   174
100
AcDbLine
 10
228.462566
 20
180.95
 30
0.0
 11
228.462566
 21
181.0
 31
0.0
  0
LINE
  5
1AB
100
AcDbEntity
  8
0
  6
HIDDEN
 62
   174
100
AcDbLine
 10
77.348917
 20
180.95
 30
0.0
 11
77.348917
 21
181.0
 31
0.0
  0
LINE
  5
1AC
100
AcDbEntity
  8
0
  6
HIDDEN
 62
   174
100
AcDbLine
 10
228.062566
 20
180.95
 30
0.0
 11
228.062566
 21
181.0
 31
0.0
  0
LINE
  5
1AD
100
AcDbEntity
  8
0
  6
HIDDEN
 62
   174
100
AcDbLine
 10
83.348917
 20
180.95
 30
0.0
 11
83.348917
 21
181.0
 31
0.0
  0
LINE
  5
1AE
100
AcDbEntity
  8
0
  6
HIDDEN
 62
   174
100
AcDbLine
 10
222.062566
 20
180.95
 30
0.0
 11
222.062566
 21
181.0
 31
0.0
  0
LINE
  5
1AF
100
AcDbEntity
  8
0
  6
HIDDEN
 62
   174
100
AcDbLine
 10
78.371734
 20
181.0
 30
0.0
 11
78.371734
 21
180.95
 31
0.0
  0
LINE
  5
1B0
100
AcDbEntity
  8
0
  6
HIDDEN
 62
   174
100
AcDbLine
 10
77.353121
 20
181.0
 30
0.0
 11
76.967134
 21
181.0
 31
0.0
  0
LINE
  5
1B1
100
AcDbEntity
  8
0
  6
HIDDEN
 62
   174
100
AcDbLine
 10
223.380708
 20
181.0
 30
0.0
 11
223.254099
 21
181.0
 31
0.0
  0
LINE
  5
1B2
100
AcDbEntity
  8
0
  6
HIDDEN
 62
   174
100
AcDbLine
 10
227.074244
 20
181.0
 30
0.0
 11
225.08058
 21
181.0
 31
0.0
  0
LINE
  5
1B3
100
AcDbEntity
  8
0
  6
HIDDEN
 62
   174
100
AcDbLine
 10
227.469366
 20
181.0
 30
0.0
 11
227.074244
 21
181.0
 31
0.0
  0
LINE
  5
1B4
100
AcDbEntity
  8
0
  6
HIDDEN
 62
   174
100
AcDbLine
 10
228.094975
 20
181.0
 30
0.0
 11
228.025085
 21
181.0
 31
0.0
  0
LINE
  5
1B5
100
AcDbEntity
  8
0
  6
HIDDEN
 62
   174
100
AcDbLine
 10
78.376188
 20
181.0
 30
0.0
 11
77.367141
 21
181.0
 31
0.0
  0
LINE
  5
1B6
100
AcDbEntity
  8
0
  6
HIDDEN
 62
   174
100
AcDbLine
 10
82.184438
 20
181.0
 30
0.0
 11
80.367091
 21
181.0
 31
0.0
  0
LINE
  5
1B7
100
AcDbEntity
  8
0
  6
HIDDEN
 62
   174
100
AcDbLine
 10
121.605742
 20
105.0
 30
0.0
 11
121.605742
 21
117.0
 31
0.0
  0
LINE
  5
1B8
100
AcDbEntity
  8
0
  6
HIDDEN
 62
   174
100
AcDbLine
 10
125.805742
 20
105.0
 30
0.0
 11
125.805742
 21
117.0
 31
0.0
  0
LINE
  5
1B9
100
AcDbEntity
  8
0
  6
HIDDEN
 62
   174
100
AcDbLine
 10
225.081005
 20
181.0
 30
0.0
 11
224.982012
 21
181.0
 31
0.0
  0
LINE
  5
1BA
100
AcDbEntity
  8
0
  6
HIDDEN
 62
   174
100
AcDbLine
 10
179.605742
 20
115.0
 30
0.0
 11
179.605742
 21
105.0
 31
0.0
  0
LINE
  5
1BB
100
AcDbEntity
  8
0
  6
HIDDEN
 62
   174
100
AcDbLine
 10
183.805742
 20
115.0
 30
0.0
 11
183.805742
 21
105.0
 31
0.0
  0
LINE
  5
1BC
100
AcDbEntity
  8
0
  6
Continuous
 62
   174
100
AcDbLine
 10
54.205742
 20
179.5
 30
0.0
 11
51.205742
 21
179.5
 31
0.0
  0
LINE
  5
1BD
100
AcDbEntity
  8
0
  6
Continuous
 62
   174
100
AcDbLine
 10
65.705742
 20
127.0
 30
0.0
 11
65.705742
 21
152.0
 31
0.0
  0
LINE
  5
1BE
100
AcDbEntity
  8
0
  6
HIDDEN
 62
   174
100
AcDbLine
 10
83.311596
 20
181.0
 30
0.0
 11
82.771172
 21
181.0
 31
0.0
  0
LINE
  5
1BF
100
AcDbEntity
  8
0
  6
HIDDEN
 62
   174
100
AcDbLine
 10
223.254099
 20
181.0
 30
0.0
 11
222.136075
 21
181.0
 31
0.0
  0
LINE
  5
1C0
100
AcDbEntity
  8
0
  6
HIDDEN
 62
   174
100
AcDbLine
 10
227.484874
 20
181.0
 30
0.0
 11
227.469366
 21
181.0
 31
0.0
  0
LINE
  5
1C1
100
AcDbEntity
  8
0
  6
HIDDEN
 62
   174
100
AcDbLine
 10
80.367091
 20
181.0
 30
0.0
 11
78.539972
 21
181.0
 31
0.0
  0
LINE
  5
1C2
100
AcDbEntity
  8
0
  6
HIDDEN
 62
   174
100
AcDbLine
 10
228.080742
 20
181.0
 30
0.0
 11
227.467454
 21
181.0
 31
0.0
  0
LINE
  5
1C3
100
AcDbEntity
  8
0
  6
HIDDEN
 62
   174
100
AcDbLine
 10
121.605742
 20
115.0
 30
0.0
 11
121.605742
 21
105.0
 31
0.0
  0
LINE
  5
1C4
100
AcDbEntity
  8
0
  6
HIDDEN
 62
   174
100
AcDbLine
 10
126.205742
 20
115.0
 30
0.0
 11
126.205742
 21
105.0
 31
0.0
  0
LINE
  5
1C5
100
AcDbEntity
  8
0
  6
HIDDEN
 62
   174
100
AcDbLine
 10
125.805742
 20
115.0
 30
0.0
 11
125.805742
 21
105.0
 31
0.0
  0
LINE
  5
1C6
100
AcDbEntity
  8
0
  6
HIDDEN
 62
   174
100
AcDbLine
 10
80.348917
 20
181.0
 30
0.0
 11
78.371734
 21
181.0
 31
0.0
  0
LINE
  5
1C7
100
AcDbEntity
  8
0
  6
HIDDEN
 62
   174
100
AcDbLine
 10
184.205742
 20
115.0
 30
0.0
 11
184.205742
 21
105.0
 31
0.0
  0
LINE
  5
1C8
100
AcDbEntity
  8
0
  6
Continuous
 62
   174
100
AcDbLine
 10
254.205742
 20
164.0
 30
0.0
 11
254.905742
 21
164.0
 31
0.0
  0
LINE
  5
1C9
100
AcDbEntity
  8
0
  6
HIDDEN
 62
   174
100
AcDbLine
 10
209.705742
 20
127.0
 30
0.0
 11
209.705742
 21
152.0
 31
0.0
  0
LINE
  5
1CA
100
AcDbEntity
  8
0
  6
Continuous
 62
   174
100
AcDbLine
 10
258.705742
 20
165.2
 30
0.0
 11
258.038487
 21
164.044282
 31
0.0
  0
LINE
  5
1CB
100
AcDbEntity
  8
0
  6
HIDDEN
 62
   174
100
AcDbLine
 10
83.767048
 20
181.0
 30
0.0
 11
83.381274
 21
181.0
 31
0.0
  0
LINE
  5
1CC
100
AcDbEntity
  8
0
  6
HIDDEN
 62
   174
100
AcDbLine
 10
78.373426
 20
181.0
 30
0.0
 11
77.422585
 21
181.0
 31
0.0
  0
LINE
  5
1CD
100
AcDbEntity
  8
0
  6
HIDDEN
 62
   174
100
AcDbLine
 10
82.193572
 20
181.0
 30
0.0
 11
82.067176
 21
181.0
 31
0.0
  0
LINE
  5
1CE
100
AcDbEntity
  8
0
  6
HIDDEN
 62
   174
100
AcDbLine
 10
83.381274
 20
181.0
 30
0.0
 11
83.311596
 21
181.0
 31
0.0
  0
LINE
  5
1CF
100
AcDbEntity
  8
0
  6
HIDDEN
 62
   174
100
AcDbLine
 10
228.480537
 20
181.0
 30
0.0
 11
228.094975
 21
181.0
 31
0.0
  0
LINE
  5
1D0
100
AcDbEntity
  8
0
  6
HIDDEN
 62
   174
100
AcDbLine
 10
121.223936
 20
115.0
 30
0.0
 11
126.223924
 21
115.0
 31
0.0
  0
LINE
  5
1D1
100
AcDbEntity
  8
0
  6
HIDDEN
 62
   174
100
AcDbLine
 10
121.605742
 20
115.0
 30
0.0
 11
121.605742
 21
105.0
 31
0.0
  0
LINE
  5
1D2
100
AcDbEntity
  8
0
  6
HIDDEN
 62
   174
100
AcDbLine
 10
125.823916
 20
117.0
 30
0.0
 11
121.623944
 21
117.0
 31
0.0
  0
LINE
  5
1D3
100
AcDbEntity
  8
0
  6
HIDDEN
 62
   174
100
AcDbLine
 10
179.605742
 20
115.0
 30
0.0
 11
179.605742
 21
105.0
 31
0.0
  0
LINE
  5
1D4
100
AcDbEntity
  8
0
  6
HIDDEN
 62
   174
100
AcDbLine
 10
179.205742
 20
115.0
 30
0.0
 11
179.205742
 21
105.0
 31
0.0
  0
LINE
  5
1D5
100
AcDbEntity
  8
0
  6
HIDDEN
 62
   174
100
AcDbLine
 10
179.205742
 20
115.0
 30
0.0
 11
179.205742
 21
105.0
 31
0.0
  0
LINE
  5
1D6
100
AcDbEntity
  8
0
  6
HIDDEN
 62
   174
100
AcDbLine
 10
179.605742
 20
105.0
 30
0.0
 11
179.605742
 21
117.0
 31
0.0
  0
LINE
  5
1D7
100
AcDbEntity
  8
0
  6
HIDDEN
 62
   174
100
AcDbLine
 10
183.805742
 20
105.0
 30
0.0
 11
183.805742
 21
117.0
 31
0.0
  0
LINE
  5
1D8
100
AcDbEntity
  8
0
  6
Continuous
 62
   174
100
AcDbLine
 10
251.205742
 20
179.5
 30
0.0
 11
254.205742
 21
179.5
 31
0.0
  0
LINE
  5
1D9
100
AcDbEntity
  8
0
  6
Continuous
 62
   174
100
AcDbLine
 10
51.205742
 20
164.0
 30
0.0
 11
50.505742
 21
164.0
 31
0.0
  0
LINE
  5
1DA
100
AcDbEntity
  8
0
  6
HIDDEN
 62
   174
100
AcDbLine
 10
228.025085
 20
181.0
 30
0.0
 11
227.484874
 21
181.0
 31
0.0
  0
LINE
  5
1DB
100
AcDbEntity
  8
0
  6
HIDDEN
 62
   174
100
AcDbLine
 10
78.539972
 20
181.0
 30
0.0
 11
78.376188
 21
181.0
 31
0.0
  0
LINE
  5
1DC
100
AcDbEntity
  8
0
  6
HIDDEN
 62
   174
100
AcDbLine
 10
225.062566
 20
181.0
 30
0.0
 11
223.245161
 21
181.0
 31
0.0
  0
LINE
  5
1DD
100
AcDbEntity
  8
0
  6
HIDDEN
 62
   174
100
AcDbLine
 10
227.057887
 20
181.0
 30
0.0
 11
225.081005
 21
181.0
 31
0.0
  0
LINE
  5
1DE
100
AcDbEntity
  8
0
  6
HIDDEN
 62
   174
100
AcDbLine
 10
123.705742
 20
118.212436
 30
0.0
 11
125.805742
 21
117.0
 31
0.0
  0
LINE
  5
1DF
100
AcDbEntity
  8
0
  6
Continuous
 62
   174
100
AcDbLine
 10
251.205742
 20
166.5
 30
0.0
 11
254.205742
 21
166.5
 31
0.0
  0
LINE
  5
1E0
100
AcDbEntity
  8
0
  6
Continuous
 62
   174
100
AcDbLine
 10
209.705742
 20
124.0
 30
0.0
 11
239.705742
 21
124.0
 31
0.0
  0
LINE
  5
1E1
100
AcDbEntity
  8
0
  6
HIDDEN
 62
   174
100
AcDbLine
 10
181.705742
 20
118.212436
 30
0.0
 11
179.605742
 21
117.0
 31
0.0
  0
LINE
  5
1E2
100
AcDbEntity
  8
0
  6
HIDDEN
 62
   174
100
AcDbLine
 10
181.705742
 20
118.212436
 30
0.0
 11
183.805742
 21
117.0
 31
0.0
  0
LINE
  5
1E3
100
AcDbEntity
  8
0
  6
Continuous
 62
   174
100
AcDbLine
 10
51.205742
 20
182.0
 30
0.0
 11
50.505742
 21
182.0
 31
0.0
  0
LINE
  5
1E4
100
AcDbEntity
  8
0
  6
Continuous
 62
   174
100
AcDbLine
 10
46.705742
 20
165.2
 30
0.0
 11
47.372996
 21
164.044282
 31
0.0
  0
LINE
  5
1E5
100
AcDbEntity
  8
0
  6
HIDDEN
 62
   174
100
AcDbLine
 10
82.605185
 20
181.0
 30
0.0
 11
82.605185
 21
180.95
 31
0.0
  0
LINE
  5
1E6
100
AcDbEntity
  8
0
  6
HIDDEN
 62
   174
100
AcDbLine
 10
223.245161
 20
181.0
 30
0.0
 11
223.245161
 21
180.95
 31
0.0
  0
LINE
  5
1E7
100
AcDbEntity
  8
0
  6
HIDDEN
 62
   174
100
AcDbLine
 10
77.422585
 20
181.0
 30
0.0
 11
77.353121
 21
181.0
 31
0.0
  0
LINE
  5
1E8
100
AcDbEntity
  8
0
  6
HIDDEN
 62
   174
100
AcDbLine
 10
82.067176
 20
181.0
 30
0.0
 11
80.367091
 21
181.0
 31
0.0
  0
LINE
  5
1E9
100
AcDbEntity
  8
0
  6
HIDDEN
 62
   174
100
AcDbLine
 10
82.771172
 20
181.0
 30
0.0
 11
82.635854
 21
181.0
 31
0.0
  0
LINE
  5
1EA
100
AcDbEntity
  8
0
  6
HIDDEN
 62
   174
100
AcDbLine
 10
83.367041
 20
181.0
 30
0.0
 11
82.62332
 21
181.0
 31
0.0
  0
LINE
  5
1EB
100
AcDbEntity
  8
0
  6
HIDDEN
 62
   174
100
AcDbLine
 10
125.823916
 20
117.0
 30
0.0
 11
121.623944
 21
117.0
 31
0.0
  0
LINE
  5
1EC
100
AcDbEntity
  8
0
  6
Continuous
 62
   174
100
AcDbLine
 10
254.205742
 20
182.0
 30
0.0
 11
254.905742
 21
182.0
 31
0.0
  0
LINE
  5
1ED
100
AcDbEntity
  8
0
  6
HIDDEN
 62
   174
100
AcDbLine
 10
183.82394
 20
117.0
 30
0.0
 11
179.623755
 21
117.0
 31
0.0
  0
LINE
  5
1EE
100
AcDbEntity
  8
0
  6
HIDDEN
 62
   174
100
AcDbLine
 10
125.823916
 20
105.0
 30
0.0
 11
121.623944
 21
105.0
 31
0.0
  0
LINE
  5
1EF
100
AcDbEntity
  8
0
  6
HIDDEN
 62
   174
100
AcDbLine
 10
183.82394
 20
105.0
 30
0.0
 11
179.623755
 21
105.0
 31
0.0
  0
LINE
  5
1F0
100
AcDbEntity
  8
0
  6
HIDDEN
 62
   174
100
AcDbLine
 10
227.449413
 20
181.0
 30
0.0
 11
227.449413
 21
180.95
 31
0.0
  0
LINE
  5
1F1
100
AcDbEntity
  8
0
  6
HIDDEN
 62
   174
100
AcDbLine
 10
121.205742
 20
115.0
 30
0.0
 11
121.205742
 21
105.0
 31
0.0
  0
LINE
  5
1F2
100
AcDbEntity
  8
0
  6
HIDDEN
 62
   174
100
AcDbLine
 10
82.605185
 20
181.0
 30
0.0
 11
82.166322
 21
181.0
 31
0.0
  0
LINE
  5
1F3
100
AcDbEntity
  8
0
  6
HIDDEN
 62
   174
100
AcDbLine
 10
82.166322
 20
181.0
 30
0.0
 11
80.348917
 21
181.0
 31
0.0
  0
LINE
  5
1F4
100
AcDbEntity
  8
0
  6
HIDDEN
 62
   174
100
AcDbLine
 10
184.205742
 20
115.0
 30
0.0
 11
184.205742
 21
105.0
 31
0.0
  0
LINE
  5
1F5
100
AcDbEntity
  8
0
  6
HIDDEN
 62
   174
100
AcDbLine
 10
179.223747
 20
105.0
 30
0.0
 11
184.223947
 21
105.0
 31
0.0
  0
LINE
  5
1F6
100
AcDbEntity
  8
0
  6
HIDDEN
 62
   174
100
AcDbLine
 10
183.805742
 20
115.0
 30
0.0
 11
183.805742
 21
105.0
 31
0.0
  0
LINE
  5
1F7
100
AcDbEntity
  8
0
  6
Continuous
 62
   174
100
AcDbLine
 10
54.205742
 20
166.5
 30
0.0
 11
51.205742
 21
166.5
 31
0.0
  0
LINE
  5
1F8
100
AcDbEntity
  8
0
  6
HIDDEN
 62
   174
100
AcDbLine
 10
95.705742
 20
152.0
 30
0.0
 11
95.705742
 21
127.0
 31
0.0
  0
LINE
  5
1F9
100
AcDbEntity
  8
0
  6
HIDDEN
 62
   174
100
AcDbLine
 10
222.806298
 20
181.0
 30
0.0
 11
222.806298
 21
180.95
 31
0.0
  0
LINE
  5
1FA
100
AcDbEntity
  8
0
  6
HIDDEN
 62
   174
100
AcDbLine
 10
80.367091
 20
181.0
 30
0.0
 11
78.373426
 21
181.0
 31
0.0
  0
LINE
  5
1FB
100
AcDbEntity
  8
0
  6
HIDDEN
 62
   174
100
AcDbLine
 10
222.066397
 20
181.0
 30
0.0
 11
221.680623
 21
181.0
 31
0.0
  0
LINE
  5
1FC
100
AcDbEntity
  8
0
  6
HIDDEN
 62
   174
100
AcDbLine
 10
227.039749
 20
181.0
 30
0.0
 11
225.062566
 21
181.0
 31
0.0
  0
LINE
  5
1FD
100
AcDbEntity
  8
0
  6
HIDDEN
 62
   174
100
AcDbLine
 10
121.223936
 20
105.0
 30
0.0
 11
126.223924
 21
105.0
 31
0.0
  0
LINE
  5
1FE
100
AcDbEntity
  8
0
  6
HIDDEN
 62
   174
100
AcDbLine
 10
125.805742
 20
105.0
 30
0.0
 11
125.805742
 21
117.0
 31
0.0
  0
LINE
  5
1FF
100
AcDbEntity
  8
0
  6
HIDDEN
 62
   174
100
AcDbLine
 10
121.605742
 20
105.0
 30
0.0
 11
121.605742
 21
117.0
 31
0.0
  0
LINE
  5
200
100
AcDbEntity
  8
0
  6
HIDDEN
 62
   174
100
AcDbLine
 10
125.805742
 20
115.0
 30
0.0
 11
125.805742
 21
105.0
 31
0.0
  0
LINE
  5
201
100
AcDbEntity
  8
0
  6
HIDDEN
 62
   174
100
AcDbLine
 10
183.82394
 20
117.0
 30
0.0
 11
179.623755
 21
117.0
 31
0.0
  0
LINE
  5
202
100
AcDbEntity
  8
0
  6
HIDDEN
 62
   174
100
AcDbLine
 10
227.039749
 20
181.0
 30
0.0
 11
227.039749
 21
180.95
 31
0.0
  0
LINE
  5
203
100
AcDbEntity
  8
0
  6
HIDDEN
 62
   174
100
AcDbLine
 10
77.96207
 20
181.0
 30
0.0
 11
77.96207
 21
180.95
 31
0.0
  0
LINE
  5
204
100
AcDbEntity
  8
0
  6
HIDDEN
 62
   174
100
AcDbLine
 10
82.166322
 20
181.0
 30
0.0
 11
82.166322
 21
180.95
 31
0.0
  0
LINE
  5
205
100
AcDbEntity
  8
0
  6
HIDDEN
 62
   174
100
AcDbLine
 10
82.635854
 20
181.0
 30
0.0
 11
82.193572
 21
181.0
 31
0.0
  0
LINE
  5
206
100
AcDbEntity
  8
0
  6
HIDDEN
 62
   174
100
AcDbLine
 10
222.136075
 20
181.0
 30
0.0
 11
222.066397
 21
181.0
 31
0.0
  0
LINE
  5
207
100
AcDbEntity
  8
0
  6
HIDDEN
 62
   174
100
AcDbLine
 10
225.08058
 20
181.0
 30
0.0
 11
223.380708
 21
181.0
 31
0.0
  0
LINE
  5
208
100
AcDbEntity
  8
0
  6
HIDDEN
 62
   174
100
AcDbLine
 10
227.449413
 20
181.0
 30
0.0
 11
227.039749
 21
181.0
 31
0.0
  0
LINE
  5
209
100
AcDbEntity
  8
0
  6
HIDDEN
 62
   174
100
AcDbLine
 10
126.205742
 20
115.0
 30
0.0
 11
126.205742
 21
105.0
 31
0.0
  0
LINE
  5
20A
100
AcDbEntity
  8
0
  6
HIDDEN
 62
   174
100
AcDbLine
 10
121.205742
 20
115.0
 30
0.0
 11
121.205742
 21
105.0
 31
0.0
  0
LINE
  5
20B
100
AcDbEntity
  8
0
  6
HIDDEN
 62
   174
100
AcDbLine
 10
223.248788
 20
181.0
 30
0.0
 11
222.08063
 21
181.0
 31
0.0
  0
LINE
  5
20C
100
AcDbEntity
  8
0
  6
HIDDEN
 62
   174
100
AcDbLine
 10
224.982012
 20
181.0
 30
0.0
 11
223.248788
 21
181.0
 31
0.0
  0
LINE
  5
20D
100
AcDbEntity
  8
0
  6
HIDDEN
 62
   174
100
AcDbLine
 10
123.705742
 20
118.212436
 30
0.0
 11
121.605742
 21
117.0
 31
0.0
  0
LINE
  5
20E
100
AcDbEntity
  8
0
  6
HIDDEN
 62
   174
100
AcDbLine
 10
179.223747
 20
115.0
 30
0.0
 11
184.223947
 21
115.0
 31
0.0
  0
LINE
  5
20F
100
AcDbEntity
  8
0
  6
HIDDEN
 62
   174
100
AcDbLine
 10
179.605742
 20
105.0
 30
0.0
 11
179.605742
 21
117.0
 31
0.0
  0
LINE
  5
210
100
AcDbEntity
  8
0
  6
HIDDEN
 62
   174
100
AcDbLine
 10
183.805742
 20
105.0
 30
0.0
 11
183.805742
 21
117.0
 31
0.0
  0
LINE
  5
211
100
AcDbEntity
  8
0
  6
Continuous
 62
   174
100
AcDbLine
 10
54.205742
 20
181.0
 30
0.0
 11
69.205742
 21
181.0
 31
0.0
  0
LINE
  5
212
100
AcDbEntity
  8
0
  6
Continuous
 62
   174
100
AcDbLine
 10
111.705742
 20
165.0
 30
0.0
 11
193.705742
 21
165.0
 31
0.0
  0
LINE
  5
213
100
AcDbEntity
  8
0
  6
Continuous
 62
   174
100
AcDbLine
 10
50.505742
 20
177.585905
 30
0.0
 11
50.505742
 21
173.008442
 31
0.0
  0
LINE
  5
214
100
AcDbEntity
  8
0
  6
Continuous
 62
   174
100
AcDbLine
 10
254.905742
 20
177.42998
 30
0.0
 11
254.905742
 21
182.007867
 31
0.0
  0
LINE
  5
215
100
AcDbEntity
  8
0
  6
HIDDEN
 62
   174
100
AcDbLine
 10
247.405742
 20
143.613879
 30
0.0
 11
241.205742
 21
143.613879
 31
0.0
  0
LINE
  5
216
100
AcDbEntity
  8
0
  6
HIDDEN
 62
   174
100
AcDbLine
 10
239.205742
 20
165.0
 30
0.0
 11
239.205742
 21
152.0
 31
0.0
  0
LINE
  5
217
100
AcDbEntity
  8
0
  6
Continuous
 62
   174
100
AcDbLine
 10
241.205742
 20
125.329165
 30
0.0
 11
241.205742
 21
125.011155
 31
0.0
  0
LINE
  5
218
100
AcDbEntity
  8
0
  6
Continuous
 62
   174
100
AcDbLine
 10
69.205742
 20
178.0
 30
0.0
 11
92.205742
 21
178.0
 31
0.0
  0
LINE
  5
219
100
AcDbEntity
  8
0
  6
Continuous
 62
   174
100
AcDbLine
 10
47.371121
 20
181.950757
 30
0.0
 11
47.398562
 21
181.999551
 31
0.0
  0
LINE
  5
21A
100
AcDbEntity
  8
0
  6
HIDDEN
 62
   174
100
AcDbLine
 10
221.662566
 20
181.0
 30
0.0
 11
222.062624
 21
181.0
 31
0.0
  0
LINE
  5
21B
100
AcDbEntity
  8
0
  6
HIDDEN
 62
   174
100
AcDbLine
 10
69.205742
 20
152.0
 30
0.0
 11
69.205742
 21
178.0
 31
0.0
  0
LINE
  5
21C
100
AcDbEntity
  8
0
  6
Continuous
 62
   174
100
AcDbLine
 10
92.205742
 20
178.0
 30
0.0
 11
92.205742
 21
152.0
 31
0.0
  0
LINE
  5
21D
100
AcDbEntity
  8
0
  6
HIDDEN
 62
   174
100
AcDbLine
 10
178.105742
 20
119.0
 30
0.0
 11
178.105742
 21
105.0
 31
0.0
  0
LINE
  5
21E
100
AcDbEntity
  8
0
  6
Continuous
 62
   174
100
AcDbLine
 10
193.705742
 20
105.0
 30
0.0
 11
209.705742
 21
105.0
 31
0.0
  0
LINE
  5
21F
100
AcDbEntity
  8
0
  6
Continuous
 62
   174
100
AcDbLine
 10
95.705742
 20
105.0
 30
0.0
 11
95.705742
 21
165.0
 31
0.0
  0
LINE
  5
220
100
AcDbEntity
  8
0
  6
Continuous
 62
   174
100
AcDbLine
 10
193.705742
 20
165.0
 30
0.0
 11
193.705742
 21
105.0
 31
0.0
  0
LINE
  5
221
100
AcDbEntity
  8
0
  6
Continuous
 62
   174
100
AcDbLine
 10
58.005742
 20
129.92107
 30
0.0
 11
64.205742
 21
129.92107
 31
0.0
  0
LINE
  5
222
100
AcDbEntity
  8
0
  6
HIDDEN
 62
   174
100
AcDbLine
 10
247.405742
 20
137.5
 30
0.0
 11
241.205742
 21
137.5
 31
0.0
  0
LINE
  5
223
100
AcDbEntity
  8
0
  6
Continuous
 62
   174
100
AcDbLine
 10
236.205742
 20
181.0
 30
0.0
 11
213.205742
 21
181.0
 31
0.0
  0
LINE
  5
224
100
AcDbEntity
  8
0
  6
HIDDEN
 62
   174
100
AcDbLine
 10
76.948917
 20
181.0
 30
0.0
 11
77.349242
 21
181.0
 31
0.0
  0
LINE
  5
225
100
AcDbEntity
  8
0
  6
HIDDEN
 62
   174
100
AcDbLine
 10
221.680623
 20
180.95
 30
0.0
 11
225.08058
 21
180.95
 31
0.0
  0
LINE
  5
226
100
AcDbEntity
  8
0
  6
Continuous
 62
   174
100
AcDbLine
 10
65.705742
 20
124.0
 30
0.0
 11
95.705742
 21
124.0
 31
0.0
  0
LINE
  5
227
100
AcDbEntity
  8
0
  6
Continuous
 62
   174
100
AcDbLine
 10
54.205742
 20
166.40184
 30
0.0
 11
54.205742
 21
165.00893
 31
0.0
  0
LINE
  5
228
100
AcDbEntity
  8
0
  6
Continuous
 62
   174
100
AcDbLine
 10
69.223813
 20
178.0
 30
0.0
 11
66.223863
 21
178.0
 31
0.0
  0
LINE
  5
229
100
AcDbEntity
  8
0
  6
Continuous
 62
   174
100
AcDbLine
 10
64.205742
 20
140.088867
 30
0.0
 11
64.205742
 21
143.623931
 31
0.0
  0
LINE
  5
22A
100
AcDbEntity
  8
0
  6
HIDDEN
 62
   174
100
AcDbLine
 10
146.105742
 20
105.0
 30
0.0
 11
146.105742
 21
121.0
 31
0.0
  0
LINE
  5
22B
100
AcDbEntity
  8
0
  6
HIDDEN
 62
   174
100
AcDbLine
 10
95.705742
 20
127.0
 30
0.0
 11
65.705742
 21
127.0
 31
0.0
  0
LINE
  5
22C
100
AcDbEntity
  8
0
  6
HIDDEN
 62
   174
100
AcDbLine
 10
163.203904
 20
151.0
 30
0.0
 11
142.243979
 21
151.0
 31
0.0
  0
LINE
  5
22D
100
AcDbEntity
  8
0
  6
HIDDEN
 62
   174
100
AcDbLine
 10
254.905742
 20
182.007442
 30
0.0
 11
254.905742
 21
182.007867
 31
0.0
  0
LINE
  5
22E
100
AcDbEntity
  8
0
  6
HIDDEN
 62
   174
100
AcDbLine
 10
66.205742
 20
178.008217
 30
0.0
 11
66.205742
 21
175.792138
 31
0.0
  0
LINE
  5
22F
100
AcDbEntity
  8
0
  6
HIDDEN
 62
   174
100
AcDbLine
 10
82.166322
 20
181.0
 30
0.0
 11
82.605185
 21
181.0
 31
0.0
  0
LINE
  5
230
100
AcDbEntity
  8
0
  6
HIDDEN
 62
   174
100
AcDbLine
 10
66.223863
 20
152.0
 30
0.0
 11
69.223813
 21
152.0
 31
0.0
  0
LINE
  5
231
100
AcDbEntity
  8
0
  6
HIDDEN
 62
   174
100
AcDbLine
 10
236.205742
 20
178.0
 30
0.0
 11
213.205742
 21
178.0
 31
0.0
  0
LINE
  5
232
100
AcDbEntity
  8
0
  6
HIDDEN
 62
   174
100
AcDbLine
 10
126.243892
 20
119.0
 30
0.0
 11
147.203817
 21
119.0
 31
0.0
  0
LINE
  5
233
100
AcDbEntity
  8
0
  6
Continuous
 62
   174
100
AcDbLine
 10
251.205742
 20
179.615045
 30
0.0
 11
251.205742
 21
181.007955
 31
0.0
  0
LINE
  5
234
100
AcDbEntity
  8
0
  6
HIDDEN
 62
   174
100
AcDbLine
 10
83.348917
 20
181.0
 30
0.0
 11
83.748917
 21
181.0
 31
0.0
  0
LINE
  5
235
100
AcDbEntity
  8
0
  6
Continuous
 62
   174
100
AcDbLine
 10
64.205742
 20
126.396418
 30
0.0
 11
64.205742
 21
129.931906
 31
0.0
  0
LINE
  5
236
100
AcDbEntity
  8
0
  6
HIDDEN
 62
   174
100
AcDbLine
 10
178.105742
 20
119.0
 30
0.0
 11
178.105742
 21
105.0
 31
0.0
  0
LINE
  5
237
100
AcDbEntity
  8
0
  6
Continuous
 62
   174
100
AcDbLine
 10
58.005742
 20
140.088867
 30
0.0
 11
58.005742
 21
137.51038
 31
0.0
  0
LWPOLYLINE
  5
238
100
AcDbEntity
  8
0
  6
HIDDEN
 62
   174
100
AcDbPolyline
 90
        7
 70
   128
 10
258.012921
 20
164.000449
 10
258.379048
 20
164.75214
 10
258.607146
 20
165.489186
 10
258.684049
 20
166.211435
 10
258.607131
 20
166.933674
 10
258.379031
 20
167.670693
 10
258.012921
 20
168.42234
  0
LINE
  5
239
100
AcDbEntity
  8
0
  6
Continuous
 62
   174
100
AcDbLine
 10
258.041728
 20
164.049899
 30
0.0
 11
258.012921
 21
164.000449
 31
0.0
  0
LINE
  5
23A
100
AcDbEntity
  8
0
  6
Continuous
 62
   174
100
AcDbLine
 10
258.705742
 20
165.208827
 30
0.0
 11
258.705742
 21
165.852281
 31
0.0
  0
LINE
  5
23B
100
AcDbEntity
  8
0
  6
HIDDEN
 62
   174
100
AcDbLine
 10
58.005742
 20
129.924066
 30
0.0
 11
64.205742
 21
129.924066
 31
0.0
  0
LINE
  5
23C
100
AcDbEntity
  8
0
  6
HIDDEN
 62
   174
100
AcDbLine
 10
222.824351
 20
180.95
 30
0.0
 11
222.08063
 21
180.95
 31
0.0
  0
LINE
  5
23D
100
AcDbEntity
  8
0
  6
Continuous
 62
   174
100
AcDbLine
 10
65.705742
 20
127.0
 30
0.0
 11
95.705742
 21
127.0
 31
0.0
  0
LINE
  5
23E
100
AcDbEntity
  8
0
  6
Continuous
 62
   174
100
AcDbLine
 10
193.705742
 20
165.0
 30
0.0
 11
209.705742
 21
165.0
 31
0.0
  0
LINE
  5
23F
100
AcDbEntity
  8
0
  6
Continuous
 62
   174
100
AcDbLine
 10
247.405742
 20
137.513779
 30
0.0
 11
247.405742
 21
140.091841
 31
0.0
  0
LINE
  5
240
100
AcDbEntity
  8
0
  6
HIDDEN
 62
   174
100
AcDbLine
 10
241.205742
 20
129.92107
 30
0.0
 11
241.205742
 21
126.385281
 31
0.0
  0
ARC
  5
241
100
AcDbEntity
  8
0
  6
HIDDEN
 62
   174
100
AcDbCircle
 10
69.205742
 20
178.0
 30
0.0
 40
3.0
100
AcDbArc
 50
90.0
 51
180.0
  0
LINE
  5
242
100
AcDbEntity
  8
0
  6
HIDDEN
 62
   174
100
AcDbLine
 10
146.105742
 20
105.0
 30
0.0
 11
146.105742
 21
121.0
 31
0.0
  0
LINE
  5
243
100
AcDbEntity
  8
0
  6
HIDDEN
 62
   174
100
AcDbLine
 10
159.305742
 20
105.0
 30
0.0
 11
159.305742
 21
121.0
 31
0.0
  0
LINE
  5
244
100
AcDbEntity
  8
0
  6
Continuous
 62
   174
100
AcDbLine
 10
66.205742
 20
178.0
 30
0.0
 11
66.205742
 21
175.783882
 31
0.0
  0
LINE
  5
245
100
AcDbEntity
  8
0
  6
HIDDEN
 62
   174
100
AcDbLine
 10
239.205742
 20
178.0
 30
0.0
 11
239.205742
 21
175.783882
 31
0.0
  0
LINE
  5
246
100
AcDbEntity
  8
0
  6
Continuous
 62
   174
100
AcDbLine
 10
241.205742
 20
136.506219
 30
0.0
 11
241.205742
 21
132.514004
 31
0.0
  0
LINE
  5
247
100
AcDbEntity
  8
0
  6
Continuous
 62
   174
100
AcDbLine
 10
54.205742
 20
165.0
 30
0.0
 11
66.205742
 21
165.0
 31
0.0
  0
LINE
  5
248
100
AcDbEntity
  8
0
  6
HIDDEN
 62
   174
100
AcDbLine
 10
163.185742
 20
151.0
 30
0.0
 11
163.185742
 21
165.0
 31
0.0
  0
LINE
  5
249
100
AcDbEntity
  8
0
  6
Continuous
 62
   174
100
AcDbLine
 10
254.205742
 20
182.007867
 30
0.0
 11
254.205742
 21
179.722323
 31
0.0
  0
LWPOLYLINE
  5
24A
100
AcDbEntity
  8
0
  6
Continuous
 62
   174
100
AcDbPolyline
 90
        4
 70
   128
 10
46.705742
 20
173.891611
 10
46.838862
 20
175.108327
 10
47.071947
 20
176.33049
 10
47.398562
 20
177.57766
  0
LINE
  5
24B
100
AcDbEntity
  8
0
  6
Continuous
 62
   174
100
AcDbLine
 10
47.398562
 20
177.57766
 30
0.0
 11
50.505742
 21
177.57766
 31
0.0
  0
LINE
  5
24C
100
AcDbEntity
  8
0
  6
HIDDEN
 62
   174
100
AcDbLine
 10
247.405742
 20
129.92107
 30
0.0
 11
241.205742
 21
129.92107
 31
0.0
  0
LINE
  5
24D
100
AcDbEntity
  8
0
  6
HIDDEN
 62
   174
100
AcDbLine
 10
58.005742
 20
126.387048
 30
0.0
 11
64.205742
 21
126.387048
 31
0.0
  0
LWPOLYLINE
  5
24E
100
AcDbEntity
  8
0
  6
HIDDEN
 62
   174
100
AcDbPolyline
 90
        4
 70
   128
 10
66.205742
 20
170.216118
 10
66.218301
 20
171.112819
 10
66.238706
 20
172.050973
 10
66.247702
 20
173.0
  0
LWPOLYLINE
  5
24F
100
AcDbEntity
  8
0
  6
HIDDEN
 62
   174
100
AcDbPolyline
 90
        6
 70
   128
 10
239.205742
 20
178.0
 10
239.033399
 20
179.002174
 10
238.581599
 20
179.831749
 10
237.918528
 20
180.462999
 10
237.109998
 20
180.860476
 10
236.205742
 20
181.0
  0
LINE
  5
250
100
AcDbEntity
  8
0
  6
HIDDEN
 62
   174
100
AcDbLine
 10
66.205742
 20
165.00893
 30
0.0
 11
66.205742
 21
170.224747
 31
0.0
  0
LINE
  5
251
100
AcDbEntity
  8
0
  6
HIDDEN
 62
   174
100
AcDbLine
 10
82.166322
 20
180.95
 30
0.0
 11
77.96207
 21
180.95
 31
0.0
  0
LINE
  5
252
100
AcDbEntity
  8
0
  6
Continuous
 62
   174
100
AcDbLine
 10
258.705742
 20
180.8
 30
0.0
 11
258.038465
 21
181.955757
 31
0.0
  0
LINE
  5
253
100
AcDbEntity
  8
0
  6
Continuous
 62
   174
100
AcDbLine
 10
254.905742
 20
164.009017
 30
0.0
 11
254.905742
 21
168.586692
 31
0.0
  0
LWPOLYLINE
  5
254
100
AcDbEntity
  8
0
  6
HIDDEN
 62
   174
100
AcDbPolyline
 90
        7
 70
   128
 10
258.012921
 20
177.57766
 10
258.379048
 20
178.329351
 10
258.607146
 20
179.066397
 10
258.684049
 20
179.788645
 10
258.607131
 20
180.510884
 10
258.379031
 20
181.247904
 10
258.012921
 20
181.999551
  0
LINE
  5
255
100
AcDbEntity
  8
0
  6
Continuous
 62
   174
100
AcDbLine
 10
58.005742
 20
137.5
 30
0.0
 11
58.005742
 21
132.5
 31
0.0
  0
LINE
  5
256
100
AcDbEntity
  8
0
  6
Continuous
 62
   174
100
AcDbLine
 10
65.705742
 20
127.01098
 30
0.0
 11
65.705742
 21
124.011243
 31
0.0
  0
LINE
  5
257
100
AcDbEntity
  8
0
  6
HIDDEN
 62
   174
100
AcDbLine
 10
158.243854
 20
119.0
 30
0.0
 11
179.203779
 21
119.0
 31
0.0
  0
LINE
  5
258
100
AcDbEntity
  8
0
  6
HIDDEN
 62
   174
100
AcDbLine
 10
142.225742
 20
151.0
 30
0.0
 11
142.225742
 21
165.0
 31
0.0
  0
LINE
  5
259
100
AcDbEntity
  8
0
  6
Continuous
 62
   174
100
AcDbLine
 10
58.005742
 20
126.385281
 30
0.0
 11
64.205742
 21
126.385281
 31
0.0
  0
ARC
  5
25A
100
AcDbEntity
  8
0
  6
HIDDEN
 62
   174
100
AcDbCircle
 10
236.205742
 20
178.0
 30
0.0
 40
3.0
100
AcDbArc
 50
0.0
 51
18.0
  0
LINE
  5
25B
100
AcDbEntity
  8
0
  6
HIDDEN
 62
   174
100
AcDbLine
 10
95.223875
 20
178.0
 30
0.0
 11
92.223925
 21
178.0
 31
0.0
  0
LINE
  5
25C
100
AcDbEntity
  8
0
  6
HIDDEN
 62
   174
100
AcDbLine
 10
80.367091
 20
180.95
 30
0.0
 11
83.767048
 21
180.95
 31
0.0
  0
LINE
  5
25D
100
AcDbEntity
  8
0
  6
Continuous
 62
   174
100
AcDbLine
 10
213.205742
 20
181.007955
 30
0.0
 11
213.205742
 21
178.008217
 31
0.0
  0
LINE
  5
25E
100
AcDbEntity
  8
0
  6
HIDDEN
 62
   174
100
AcDbLine
 10
143.305742
 20
165.0
 30
0.0
 11
143.305742
 21
149.0
 31
0.0
  0
LINE
  5
25F
100
AcDbEntity
  8
0
  6
Continuous
 62
   174
100
AcDbLine
 10
50.505742
 20
168.43098
 30
0.0
 11
50.505742
 21
164.009442
 31
0.0
  0
LINE
  5
260
100
AcDbEntity
  8
0
  6
Continuous
 62
   174
100
AcDbLine
 10
247.405742
 20
125.329165
 30
0.0
 11
247.405742
 21
126.398117
 31
0.0
  0
LINE
  5
261
100
AcDbEntity
  8
0
  6
HIDDEN
 62
   174
100
AcDbLine
 10
80.348917
 20
181.0
 30
0.0
 11
82.166322
 21
181.0
 31
0.0
  0
LINE
  5
262
100
AcDbEntity
  8
0
  6
HIDDEN
 62
   174
100
AcDbLine
 10
92.205742
 20
152.0
 30
0.0
 11
92.205742
 21
178.0
 31
0.0
  0
LINE
  5
263
100
AcDbEntity
  8
0
  6
Continuous
 62
   174
100
AcDbLine
 10
92.205742
 20
178.008217
 30
0.0
 11
92.205742
 21
181.007955
 31
0.0
  0
LINE
  5
264
100
AcDbEntity
  8
0
  6
HIDDEN
 62
   174
100
AcDbLine
 10
251.205742
 20
173.008442
 30
0.0
 11
251.205742
 21
179.50798
 31
0.0
  0
LINE
  5
265
100
AcDbEntity
  8
0
  6
Continuous
 62
   174
100
AcDbLine
 10
54.205742
 20
179.61462
 30
0.0
 11
54.205742
 21
173.008442
 31
0.0
  0
LINE
  5
266
100
AcDbEntity
  8
0
  6
HIDDEN
 62
   174
100
AcDbLine
 10
241.205742
 20
143.613879
 30
0.0
 11
241.205742
 21
140.0786
 31
0.0
  0
LWPOLYLINE
  5
267
100
AcDbEntity
  8
0
  6
HIDDEN
 62
   174
100
AcDbPolyline
 90
        4
 70
   128
 10
239.163781
 20
173.0
 10
239.172777
 20
172.050993
 10
239.193182
 20
171.112827
 10
239.205742
 20
170.216118
  0
LINE
  5
268
100
AcDbEntity
  8
0
  6
Continuous
 62
   174
100
AcDbLine
 10
241.205742
 20
145.010043
 30
0.0
 11
241.205742
 21
144.693096
 31
0.0
  0
LINE
  5
269
100
AcDbEntity
  8
0
  6
Continuous
 62
   174
100
AcDbLine
 10
50.505742
 20
168.42234
 30
0.0
 11
47.398562
 21
168.42234
 31
0.0
  0
LINE
  5
26A
100
AcDbEntity
  8
0
  6
Continuous
 62
   174
100
AcDbLine
 10
258.705742
 20
180.156526
 30
0.0
 11
258.705742
 21
179.264915
 31
0.0
  0
LINE
  5
26B
100
AcDbEntity
  8
0
  6
HIDDEN
 62
   174
100
AcDbLine
 10
247.405742
 20
126.385281
 30
0.0
 11
241.205742
 21
126.385281
 31
0.0
  0
LWPOLYLINE
  5
26C
100
AcDbEntity
  8
0
  6
Continuous
 62
   174
100
AcDbPolyline
 90
        6
 70
   128
 10
47.398562
 20
177.57766
 10
47.032435
 20
178.329351
 10
46.804337
 20
179.066397
 10
46.727434
 20
179.788645
 10
46.804352
 20
180.510884
 10
46.855253
 20
180.722466
  0
LINE
  5
26D
100
AcDbEntity
  8
0
  6
Continuous
 62
   174
100
AcDbLine
 10
213.223746
 20
178.0
 30
0.0
 11
210.223796
 21
178.0
 31
0.0
  0
LINE
  5
26E
100
AcDbEntity
  8
0
  6
HIDDEN
 62
   174
100
AcDbLine
 10
126.225742
 20
119.0
 30
0.0
 11
126.225742
 21
105.0
 31
0.0
  0
LINE
  5
26F
100
AcDbEntity
  8
0
  6
HIDDEN
 62
   174
100
AcDbLine
 10
158.225742
 20
119.0
 30
0.0
 11
158.225742
 21
105.0
 31
0.0
  0
LWPOLYLINE
  5
270
100
AcDbEntity
  8
0
  6
HIDDEN
 62
   174
100
AcDbPolyline
 90
        4
 70
   128
 10
258.012921
 20
168.42234
 10
258.340822
 20
169.675155
 10
258.573575
 20
170.897976
 10
258.705742
 20
172.108389
  0
LINE
  5
271
100
AcDbEntity
  8
0
  6
Continuous
 62
   174
100
AcDbLine
 10
58.005742
 20
144.692246
 30
0.0
 11
58.005742
 21
143.623931
 31
0.0
  0
LINE
  5
272
100
AcDbEntity
  8
0
  6
Continuous
 62
   174
100
AcDbLine
 10
254.905742
 20
181.999551
 30
0.0
 11
258.012921
 21
181.999551
 31
0.0
  0
ARC
  5
273
100
AcDbEntity
  8
0
  6
Continuous
 62
   174
100
AcDbCircle
 10
236.205742
 20
178.0
 30
0.0
 40
3.0
100
AcDbArc
 50
-360.0
 51
-270.0
  0
LINE
  5
274
100
AcDbEntity
  8
0
  6
Continuous
 62
   174
100
AcDbLine
 10
69.205742
 20
178.008217
 30
0.0
 11
69.205742
 21
181.007955
 31
0.0
  0
LINE
  5
275
100
AcDbEntity
  8
0
  6
Continuous
 62
   174
100
AcDbLine
 10
111.705742
 20
105.0
 30
0.0
 11
193.705742
 21
105.0
 31
0.0
  0
LWPOLYLINE
  5
276
100
AcDbEntity
  8
0
  6
Continuous
 62
   174
100
AcDbPolyline
 90
        4
 70
   128
 10
66.247702
 20
173.0
 10
66.238706
 20
172.050993
 10
66.218301
 20
171.112827
 10
66.205742
 20
170.216118
  0
ARC
  5
277
100
AcDbEntity
  8
0
  6
Continuous
 62
   174
100
AcDbCircle
 10
213.205742
 20
178.0
 30
0.0
 40
3.0
100
AcDbArc
 50
-270.0
 51
-180.0
  0
LINE
  5
278
100
AcDbEntity
  8
0
  6
HIDDEN
 62
   174
100
AcDbLine
 10
127.305742
 20
105.0
 30
0.0
 11
127.305742
 21
121.0
 31
0.0
  0
LINE
  5
279
100
AcDbEntity
  8
0
  6
Continuous
 62
   174
100
AcDbLine
 10
50.505742
 20
173.008442
 30
0.0
 11
50.505742
 21
168.43098
 31
0.0
  0
LINE
  5
27A
100
AcDbEntity
  8
0
  6
HIDDEN
 62
   174
100
AcDbLine
 10
247.405742
 20
140.0786
 30
0.0
 11
241.205742
 21
140.0786
 31
0.0
  0
LINE
  5
27B
100
AcDbEntity
  8
0
  6
Continuous
 62
   174
100
AcDbLine
 10
247.405742
 20
143.615645
 30
0.0
 11
241.205742
 21
143.615645
 31
0.0
  0
LINE
  5
27C
100
AcDbEntity
  8
0
  6
Continuous
 62
   174
100
AcDbLine
 10
239.705742
 20
152.0
 30
0.0
 11
239.705742
 21
127.0
 31
0.0
  0
LINE
  5
27D
100
AcDbEntity
  8
0
  6
HIDDEN
 62
   174
100
AcDbLine
 10
159.305742
 20
119.0
 30
0.0
 11
159.305742
 21
105.0
 31
0.0
  0
LINE
  5
27E
100
AcDbEntity
  8
0
  6
HIDDEN
 62
   174
100
AcDbLine
 10
143.305742
 20
151.0
 30
0.0
 11
143.305742
 21
165.0
 31
0.0
  0
LINE
  5
27F
100
AcDbEntity
  8
0
  6
HIDDEN
 62
   174
100
AcDbLine
 10
239.705742
 20
135.010493
 30
0.0
 11
239.705742
 21
125.011155
 31
0.0
  0
LINE
  5
280
100
AcDbEntity
  8
0
  6
Continuous
 62
   174
100
AcDbLine
 10
254.205742
 20
173.008442
 30
0.0
 11
254.205742
 21
166.294137
 31
0.0
  0
LINE
  5
281
100
AcDbEntity
  8
0
  6
Continuous
 62
   174
100
AcDbLine
 10
58.005742
 20
144.682136
 30
0.0
 11
64.205742
 21
144.682136
 31
0.0
  0
LINE
  5
282
100
AcDbEntity
  8
0
  6
HIDDEN
 62
   174
100
AcDbLine
 10
228.462566
 20
181.0
 30
0.0
 11
236.205742
 21
181.0
 31
0.0
  0
LINE
  5
283
100
AcDbEntity
  8
0
  6
HIDDEN
 62
   174
100
AcDbLine
 10
146.123818
 20
105.0
 30
0.0
 11
127.323891
 21
105.0
 31
0.0
  0
LINE
  5
284
100
AcDbEntity
  8
0
  6
HIDDEN
 62
   174
100
AcDbLine
 10
64.205742
 20
126.387048
 30
0.0
 11
64.205742
 21
129.924066
 31
0.0
  0
ARC
  5
285
100
AcDbEntity
  8
0
  6
HIDDEN
 62
   174
100
AcDbCircle
 10
236.205742
 20
178.0
 30
0.0
 40
3.0
100
AcDbArc
 50
72.0
 51
90.0
  0
LINE
  5
286
100
AcDbEntity
  8
0
  6
HIDDEN
 62
   174
100
AcDbLine
 10
78.371734
 20
181.0
 30
0.0
 11
80.348917
 21
181.0
 31
0.0
  0
LINE
  5
287
100
AcDbEntity
  8
0
  6
HIDDEN
 62
   174
100
AcDbLine
 10
213.205742
 20
181.0
 30
0.0
 11
221.662566
 21
181.0
 31
0.0
  0
ARC
  5
288
100
AcDbEntity
  8
0
  6
HIDDEN
 62
   174
100
AcDbCircle
 10
92.205742
 20
178.0
 30
0.0
 40
3.0
100
AcDbArc
 50
-342.0
 51
-324.0
  0
LWPOLYLINE
  5
289
100
AcDbEntity
  8
0
  6
HIDDEN
 62
   174
100
AcDbPolyline
 90
        4
 70
   128
 10
47.398562
 20
168.578109
 10
47.070661
 20
167.951702
 10
46.837907
 20
167.340289
 10
46.705742
 20
166.735085
  0
LINE
  5
28A
100
AcDbEntity
  8
0
  6
HIDDEN
 62
   174
100
AcDbLine
 10
50.505742
 20
177.421891
 30
0.0
 11
47.398562
 21
177.421891
 31
0.0
  0
LINE
  5
28B
100
AcDbEntity
  8
0
  6
Continuous
 62
   174
100
AcDbLine
 10
247.405742
 20
129.924066
 30
0.0
 11
241.205742
 21
129.924066
 31
0.0
  0
LINE
  5
28C
100
AcDbEntity
  8
0
  6
HIDDEN
 62
   174
100
AcDbLine
 10
127.323891
 20
121.0
 30
0.0
 11
146.123818
 21
121.0
 31
0.0
  0
LINE
  5
28D
100
AcDbEntity
  8
0
  6
HIDDEN
 62
   174
100
AcDbLine
 10
47.369755
 20
164.049899
 30
0.0
 11
47.398562
 21
164.000449
 31
0.0
  0
LINE
  5
28E
100
AcDbEntity
  8
0
  6
Continuous
 62
   174
100
AcDbLine
 10
58.005742
 20
140.0786
 30
0.0
 11
64.205742
 21
140.0786
 31
0.0
  0
LINE
  5
28F
100
AcDbEntity
  8
0
  6
HIDDEN
 62
   174
100
AcDbLine
 10
66.205742
 20
165.0
 30
0.0
 11
66.205742
 21
152.0
 31
0.0
  0
LINE
  5
290
100
AcDbEntity
  8
0
  6
HIDDEN
 62
   174
100
AcDbLine
 10
210.205742
 20
178.0
 30
0.0
 11
210.205742
 21
152.0
 31
0.0
  0
LINE
  5
291
100
AcDbEntity
  8
0
  6
HIDDEN
 62
   174
100
AcDbLine
 10
241.205742
 20
137.5
 30
0.0
 11
241.205742
 21
132.5
 31
0.0
  0
LINE
  5
292
100
AcDbEntity
  8
0
  6
Continuous
 62
   174
100
AcDbLine
 10
46.855253
 20
180.722466
 30
0.0
 11
47.371908
 21
181.952168
 31
0.0
  0
LINE
  5
293
100
AcDbEntity
  8
0
  6
HIDDEN
 62
   174
100
AcDbLine
 10
239.205742
 20
175.792138
 30
0.0
 11
239.205742
 21
178.008217
 31
0.0
  0
LINE
  5
294
100
AcDbEntity
  8
0
  6
HIDDEN
 62
   174
100
AcDbLine
 10
69.205742
 20
181.0
 30
0.0
 11
76.948917
 21
181.0
 31
0.0
  0
LINE
  5
295
100
AcDbEntity
  8
0
  6
Continuous
 62
   174
100
AcDbLine
 10
236.205742
 20
181.007955
 30
0.0
 11
236.205742
 21
178.008217
 31
0.0
  0
LINE
  5
296
100
AcDbEntity
  8
0
  6
HIDDEN
 62
   174
100
AcDbLine
 10
162.105742
 20
151.0
 30
0.0
 11
162.105742
 21
165.0
 31
0.0
  0
LINE
  5
297
100
AcDbEntity
  8
0
  6
Continuous
 62
   174
100
AcDbLine
 10
47.398562
 20
164.000449
 30
0.0
 11
47.371089
 21
164.049286
 31
0.0
  0
LINE
  5
298
100
AcDbEntity
  8
0
  6
Continuous
 62
   174
100
AcDbLine
 10
46.705742
 20
172.11687
 30
0.0
 11
46.705742
 21
165.208827
 31
0.0
  0
ARC
  5
299
100
AcDbEntity
  8
0
  6
HIDDEN
 62
   174
100
AcDbCircle
 10
92.205742
 20
178.0
 30
0.0
 40
3.0
100
AcDbArc
 50
-324.0
 51
-306.0
  0
LINE
  5
29A
100
AcDbEntity
  8
0
  6
HIDDEN
 62
   174
100
AcDbLine
 10
65.705742
 20
125.011155
 30
0.0
 11
65.705742
 21
135.010493
 31
0.0
  0
LWPOLYLINE
  5
29B
100
AcDbEntity
  8
0
  6
HIDDEN
 62
   174
100
AcDbPolyline
 90
        4
 70
   128
 10
47.369801
 20
181.95018
 10
47.070661
 20
181.373143
 10
46.837907
 20
180.76173
 10
46.705742
 20
180.156526
  0
LWPOLYLINE
  5
29C
100
AcDbEntity
  8
0
  6
HIDDEN
 62
   174
100
AcDbPolyline
 90
        4
 70
   128
 10
239.163781
 20
173.0
 10
239.172776
 20
173.948983
 10
239.193181
 20
174.887149
 10
239.205742
 20
175.783882
  0
LINE
  5
29D
100
AcDbEntity
  8
0
  6
Continuous
 62
   174
100
AcDbLine
 10
213.205742
 20
178.0
 30
0.0
 11
236.205742
 21
178.0
 31
0.0
  0
LINE
  5
29E
100
AcDbEntity
  8
0
  6
HIDDEN
 62
   174
100
AcDbLine
 10
162.105742
 20
165.0
 30
0.0
 11
162.105742
 21
149.0
 31
0.0
  0
LINE
  5
29F
100
AcDbEntity
  8
0
  6
HIDDEN
 62
   174
100
AcDbLine
 10
54.205742
 20
166.508693
 30
0.0
 11
54.205742
 21
173.008442
 31
0.0
  0
LINE
  5
2A0
100
AcDbEntity
  8
0
  6
HIDDEN
 62
   174
100
AcDbLine
 10
213.223746
 20
152.0
 30
0.0
 11
210.223796
 21
152.0
 31
0.0
  0
ARC
  5
2A1
100
AcDbEntity
  8
0
  6
HIDDEN
 62
   174
100
AcDbCircle
 10
92.205742
 20
178.0
 30
0.0
 40
3.0
100
AcDbArc
 50
0.0
 51
18.0
  0
LINE
  5
2A2
100
AcDbEntity
  8
0
  6
Continuous
 62
   174
100
AcDbLine
 10
247.405742
 20
129.93488
 30
0.0
 11
247.405742
 21
132.514004
 31
0.0
  0
LINE
  5
2A3
100
AcDbEntity
  8
0
  6
HIDDEN
 62
   174
100
AcDbLine
 10
50.505742
 20
168.578109
 30
0.0
 11
50.505742
 21
177.421891
 31
0.0
  0
LINE
  5
2A4
100
AcDbEntity
  8
0
  6
Continuous
 62
   174
100
AcDbLine
 10
247.405742
 20
140.081595
 30
0.0
 11
241.205742
 21
140.081595
 31
0.0
  0
LINE
  5
2A5
100
AcDbEntity
  8
0
  6
Continuous
 62
   174
100
AcDbLine
 10
64.205742
 20
125.011155
 30
0.0
 11
64.205742
 21
125.328315
 31
0.0
  0
LINE
  5
2A6
100
AcDbEntity
  8
0
  6
Continuous
 62
   174
100
AcDbLine
 10
241.205742
 20
143.62563
 30
0.0
 11
241.205742
 21
140.091841
 31
0.0
  0
LINE
  5
2A7
100
AcDbEntity
  8
0
  6
HIDDEN
 62
   174
100
AcDbLine
 10
127.305742
 20
119.0
 30
0.0
 11
127.305742
 21
105.0
 31
0.0
  0
LINE
  5
2A8
100
AcDbEntity
  8
0
  6
HIDDEN
 62
   174
100
AcDbLine
 10
179.185742
 20
119.0
 30
0.0
 11
179.185742
 21
105.0
 31
0.0
  0
LINE
  5
2A9
100
AcDbEntity
  8
0
  6
Continuous
 62
   174
100
AcDbLine
 10
209.705742
 20
124.0
 30
0.0
 11
239.705742
 21
124.0
 31
0.0
  0
LINE
  5
2AA
100
AcDbEntity
  8
0
  6
HIDDEN
 62
   174
100
AcDbLine
 10
64.205742
 20
132.503367
 30
0.0
 11
64.205742
 21
137.503366
 31
0.0
  0
LINE
  5
2AB
100
AcDbEntity
  8
0
  6
Continuous
 62
   174
100
AcDbLine
 10
58.005742
 20
132.5
 30
0.0
 11
64.205742
 21
132.5
 31
0.0
  0
LINE
  5
2AC
100
AcDbEntity
  8
0
  6
Continuous
 62
   174
100
AcDbLine
 10
254.905742
 20
177.421891
 30
0.0
 11
258.012921
 21
177.421891
 31
0.0
  0
LINE
  5
2AD
100
AcDbEntity
  8
0
  6
Continuous
 62
   174
100
AcDbLine
 10
247.405742
 20
125.318089
 30
0.0
 11
241.205742
 21
125.318089
 31
0.0
  0
ARC
  5
2AE
100
AcDbEntity
  8
0
  6
HIDDEN
 62
   174
100
AcDbCircle
 10
92.205742
 20
178.0
 30
0.0
 40
3.0
100
AcDbArc
 50
-306.0
 51
-288.0
  0
LINE
  5
2AF
100
AcDbEntity
  8
0
  6
HIDDEN
 62
   174
100
AcDbLine
 10
143.305742
 20
151.0
 30
0.0
 11
143.305742
 21
165.0
 31
0.0
  0
LINE
  5
2B0
100
AcDbEntity
  8
0
  6
Continuous
 62
   174
100
AcDbLine
 10
50.505742
 20
182.007442
 30
0.0
 11
50.505742
 21
177.585905
 31
0.0
  0
ARC
  5
2B1
100
AcDbEntity
  8
0
  6
Continuous
 62
   174
100
AcDbCircle
 10
92.205742
 20
178.0
 30
0.0
 40
3.0
100
AcDbArc
 50
0.0
 51
90.0
  0
LINE
  5
2B2
100
AcDbEntity
  8
0
  6
HIDDEN
 62
   174
100
AcDbLine
 10
158.225742
 20
119.0
 30
0.0
 11
158.225742
 21
105.0
 31
0.0
  0
LINE
  5
2B3
100
AcDbEntity
  8
0
  6
HIDDEN
 62
   174
100
AcDbLine
 10
159.305742
 20
105.0
 30
0.0
 11
159.305742
 21
121.0
 31
0.0
  0
LINE
  5
2B4
100
AcDbEntity
  8
0
  6
HIDDEN
 62
   174
100
AcDbLine
 10
251.205742
 20
173.008442
 30
0.0
 11
251.205742
 21
166.508693
 31
0.0
  0
LINE
  5
2B5
100
AcDbEntity
  8
0
  6
Continuous
 62
   174
100
AcDbLine
 10
254.905742
 20
173.008442
 30
0.0
 11
254.905742
 21
177.42998
 31
0.0
  0
LWPOLYLINE
  5
2B6
100
AcDbEntity
  8
0
  6
Continuous
 62
   174
100
AcDbPolyline
 90
        4
 70
   128
 10
47.398562
 20
168.42234
 10
47.070661
 20
169.675155
 10
46.837908
 20
170.897976
 10
46.705742
 20
172.108389
  0
LINE
  5
2B7
100
AcDbEntity
  8
0
  6
Continuous
 62
   174
100
AcDbLine
 10
254.905742
 20
168.578109
 30
0.0
 11
258.012921
 21
168.578109
 31
0.0
  0
ARC
  5
2B8
100
AcDbEntity
  8
0
  6
HIDDEN
 62
   174
100
AcDbCircle
 10
236.205742
 20
178.0
 30
0.0
 40
3.0
100
AcDbArc
 50
54.0
 51
72.0
  0
LINE
  5
2B9
100
AcDbEntity
  8
0
  6
Continuous
 62
   174
100
AcDbLine
 10
241.205742
 20
137.513779
 30
0.0
 11
241.205742
 21
136.506219
 31
0.0
  0
LINE
  5
2BA
100
AcDbEntity
  8
0
  6
Continuous
 62
   174
100
AcDbLine
 10
95.223875
 20
178.0
 30
0.0
 11
92.223925
 21
178.0
 31
0.0
  0
ARC
  5
2BB
100
AcDbEntity
  8
0
  6
Continuous
 62
   174
100
AcDbCircle
 10
136.705742
 20
155.0
 30
0.0
 40
3.3
100
AcDbArc
 50
-180.0
 51
0.0
  0
LINE
  5
2BC
100
AcDbEntity
  8
0
  6
HIDDEN
 62
   174
100
AcDbLine
 10
178.105742
 20
105.0
 30
0.0
 11
178.105742
 21
121.0
 31
0.0
  0
LINE
  5
2BD
100
AcDbEntity
  8
0
  6
HIDDEN
 62
   174
100
AcDbLine
 10
64.205742
 20
140.081595
 30
0.0
 11
64.205742
 21
143.615645
 31
0.0
  0
LINE
  5
2BE
100
AcDbEntity
  8
0
  6
HIDDEN
 62
   174
100
AcDbLine
 10
258.012921
 20
177.57766
 30
0.0
 11
254.905742
 21
177.57766
 31
0.0
  0
LINE
  5
2BF
100
AcDbEntity
  8
0
  6
HIDDEN
 62
   174
100
AcDbLine
 10
50.505742
 20
181.999551
 30
0.0
 11
50.505742
 21
177.421891
 31
0.0
  0
LINE
  5
2C0
100
AcDbEntity
  8
0
  6
HIDDEN
 62
   174
100
AcDbLine
 10
143.305742
 20
165.0
 30
0.0
 11
143.305742
 21
149.0
 31
0.0
  0
LINE
  5
2C1
100
AcDbEntity
  8
0
  6
HIDDEN
 62
   174
100
AcDbLine
 10
162.123905
 20
149.0
 30
0.0
 11
143.323978
 21
149.0
 31
0.0
  0
LWPOLYLINE
  5
2C2
100
AcDbEntity
  8
0
  6
HIDDEN
 62
   174
100
AcDbPolyline
 90
        4
 70
   128
 10
46.705742
 20
179.264915
 10
46.838862
 20
178.656556
 10
47.071945
 20
178.045481
 10
47.398562
 20
177.421891
  0
LINE
  5
2C3
100
AcDbEntity
  8
0
  6
Continuous
 62
   174
100
AcDbLine
 10
247.405742
 20
126.387048
 30
0.0
 11
241.205742
 21
126.387048
 31
0.0
  0
LINE
  5
2C4
100
AcDbEntity
  8
0
  6
HIDDEN
 62
   174
100
AcDbLine
 10
225.062566
 20
181.0
 30
0.0
 11
227.039749
 21
181.0
 31
0.0
  0
LINE
  5
2C5
100
AcDbEntity
  8
0
  6
Continuous
 62
   174
100
AcDbLine
 10
64.205742
 20
132.510605
 30
0.0
 11
64.205742
 21
136.506644
 31
0.0
  0
LINE
  5
2C6
100
AcDbEntity
  8
0
  6
Continuous
 62
   174
100
AcDbLine
 10
239.223808
 20
178.0
 30
0.0
 11
236.223858
 21
178.0
 31
0.0
  0
LINE
  5
2C7
100
AcDbEntity
  8
0
  6
Continuous
 62
   174
100
AcDbLine
 10
64.205742
 20
125.0
 30
0.0
 11
65.705742
 21
125.0
 31
0.0
  0
ARC
  5
2C8
100
AcDbEntity
  8
0
  6
Continuous
 62
   174
100
AcDbCircle
 10
213.205742
 20
178.0
 30
0.0
 40
3.0
100
AcDbArc
 50
90.0
 51
180.0
  0
LINE
  5
2C9
100
AcDbEntity
  8
0
  6
Continuous
 62
   174
100
AcDbLine
 10
51.205742
 20
164.009017
 30
0.0
 11
51.205742
 21
166.294562
 31
0.0
  0
LINE
  5
2CA
100
AcDbEntity
  8
0
  6
Continuous
 62
   174
100
AcDbLine
 10
58.005742
 20
125.317219
 30
0.0
 11
64.205742
 21
125.317219
 31
0.0
  0
LINE
  5
2CB
100
AcDbEntity
  8
0
  6
HIDDEN
 62
   174
100
AcDbLine
 10
50.505742
 20
168.578109
 30
0.0
 11
50.505742
 21
164.000449
 31
0.0
  0
LINE
  5
2CC
100
AcDbEntity
  8
0
  6
HIDDEN
 62
   174
100
AcDbLine
 10
222.062624
 20
181.0
 30
0.0
 11
223.245161
 21
181.0
 31
0.0
  0
LINE
  5
2CD
100
AcDbEntity
  8
0
  6
HIDDEN
 62
   174
100
AcDbLine
 10
95.223875
 20
152.0
 30
0.0
 11
92.223925
 21
152.0
 31
0.0
  0
LINE
  5
2CE
100
AcDbEntity
  8
0
  6
HIDDEN
 62
   174
100
AcDbLine
 10
127.305742
 20
105.0
 30
0.0
 11
127.305742
 21
121.0
 31
0.0
  0
LINE
  5
2CF
100
AcDbEntity
  8
0
  6
HIDDEN
 62
   174
100
AcDbLine
 10
162.105742
 20
151.0
 30
0.0
 11
162.105742
 21
165.0
 31
0.0
  0
LINE
  5
2D0
100
AcDbEntity
  8
0
  6
Continuous
 62
   174
100
AcDbLine
 10
51.205742
 20
173.008442
 30
0.0
 11
51.205742
 21
179.722748
 31
0.0
  0
LINE
  5
2D1
100
AcDbEntity
  8
0
  6
HIDDEN
 62
   174
100
AcDbLine
 10
254.905742
 20
164.009017
 30
0.0
 11
254.905742
 21
164.009442
 31
0.0
  0
LINE
  5
2D2
100
AcDbEntity
  8
0
  6
HIDDEN
 62
   174
100
AcDbLine
 10
254.905742
 20
168.42234
 30
0.0
 11
254.905742
 21
177.57766
 31
0.0
  0
LINE
  5
2D3
100
AcDbEntity
  8
0
  6
HIDDEN
 62
   174
100
AcDbLine
 10
254.905742
 20
168.42234
 30
0.0
 11
258.012921
 21
168.42234
 31
0.0
  0
LWPOLYLINE
  5
2D4
100
AcDbEntity
  8
0
  6
Continuous
 62
   174
100
AcDbPolyline
 90
        7
 70
   128
 10
258.012921
 20
177.421891
 10
258.379024
 20
175.91862
 10
258.607123
 20
174.44463
 10
258.684054
 20
173.000237
 10
258.607167
 20
171.555791
 10
258.379075
 20
170.08164
 10
258.012921
 20
168.578109
  0
LINE
  5
2D5
100
AcDbEntity
  8
0
  6
HIDDEN
 62
   174
100
AcDbLine
 10
58.005742
 20
132.503367
 30
0.0
 11
64.205742
 21
132.503367
 31
0.0
  0
LINE
  5
2D6
100
AcDbEntity
  8
0
  6
HIDDEN
 62
   174
100
AcDbLine
 10
236.205742
 20
152.0
 30
0.0
 11
213.205742
 21
152.0
 31
0.0
  0
LINE
  5
2D7
100
AcDbEntity
  8
0
  6
HIDDEN
 62
   174
100
AcDbLine
 10
236.205742
 20
181.007955
 30
0.0
 11
236.205742
 21
178.008217
 31
0.0
  0
LINE
  5
2D8
100
AcDbEntity
  8
0
  6
HIDDEN
 62
   174
100
AcDbLine
 10
158.243854
 20
105.0
 30
0.0
 11
179.203779
 21
105.0
 31
0.0
  0
LINE
  5
2D9
100
AcDbEntity
  8
0
  6
Continuous
 62
   174
100
AcDbLine
 10
209.705742
 20
127.0
 30
0.0
 11
239.705742
 21
127.0
 31
0.0
  0
LINE
  5
2DA
100
AcDbEntity
  8
0
  6
HIDDEN
 62
   174
100
AcDbLine
 10
178.12378
 20
105.0
 30
0.0
 11
159.323853
 21
105.0
 31
0.0
  0
LINE
  5
2DB
100
AcDbEntity
  8
0
  6
HIDDEN
 62
   174
100
AcDbLine
 10
51.205742
 20
173.008442
 30
0.0
 11
51.205742
 21
166.508693
 31
0.0
  0
LINE
  5
2DC
100
AcDbEntity
  8
0
  6
Continuous
 62
   174
100
AcDbLine
 10
54.205742
 20
173.008442
 30
0.0
 11
54.205742
 21
166.40184
 31
0.0
  0
LINE
  5
2DD
100
AcDbEntity
  8
0
  6
Continuous
 62
   174
100
AcDbLine
 10
251.205742
 20
173.008442
 30
0.0
 11
251.205742
 21
179.615045
 31
0.0
  0
LINE
  5
2DE
100
AcDbEntity
  8
0
  6
Continuous
 62
   174
100
AcDbLine
 10
58.005742
 20
132.510605
 30
0.0
 11
58.005742
 21
129.931906
 31
0.0
  0
LWPOLYLINE
  5
2DF
100
AcDbEntity
  8
0
  6
Continuous
 62
   174
100
AcDbPolyline
 90
        4
 70
   128
 10
66.247702
 20
173.0
 10
66.238707
 20
173.948983
 10
66.218302
 20
174.887149
 10
66.205742
 20
175.783882
  0
LINE
  5
2E0
100
AcDbEntity
  8
0
  6
HIDDEN
 62
   174
100
AcDbLine
 10
223.245161
 20
181.0
 30
0.0
 11
225.062566
 21
181.0
 31
0.0
  0
LINE
  5
2E1
100
AcDbEntity
  8
0
  6
HIDDEN
 62
   174
100
AcDbLine
 10
126.243892
 20
105.0
 30
0.0
 11
147.203817
 21
105.0
 31
0.0
  0
LINE
  5
2E2
100
AcDbEntity
  8
0
  6
HIDDEN
 62
   174
100
AcDbLine
 10
163.203904
 20
165.0
 30
0.0
 11
142.243979
 21
165.0
 31
0.0
  0
LINE
  5
2E3
100
AcDbEntity
  8
0
  6
HIDDEN
 62
   174
100
AcDbLine
 10
143.323978
 20
165.0
 30
0.0
 11
162.123905
 21
165.0
 31
0.0
  0
LINE
  5
2E4
100
AcDbEntity
  8
0
  6
HIDDEN
 62
   174
100
AcDbLine
 10
239.705742
 20
145.010043
 30
0.0
 11
239.705742
 21
135.010493
 31
0.0
  0
LINE
  5
2E5
100
AcDbEntity
  8
0
  6
HIDDEN
 62
   174
100
AcDbLine
 10
54.205742
 20
179.50798
 30
0.0
 11
54.205742
 21
173.008442
 31
0.0
  0
LINE
  5
2E6
100
AcDbEntity
  8
0
  6
HIDDEN
 62
   174
100
AcDbLine
 10
58.005742
 20
137.503366
 30
0.0
 11
64.205742
 21
137.503366
 31
0.0
  0
LINE
  5
2E7
100
AcDbEntity
  8
0
  6
HIDDEN
 62
   174
100
AcDbLine
 10
227.449413
 20
181.0
 30
0.0
 11
228.062566
 21
181.0
 31
0.0
  0
LINE
  5
2E8
100
AcDbEntity
  8
0
  6
Continuous
 62
   174
100
AcDbLine
 10
193.705742
 20
165.0
 30
0.0
 11
193.705742
 21
105.0
 31
0.0
  0
LWPOLYLINE
  5
2E9
100
AcDbEntity
  8
0
  6
HIDDEN
 62
   174
100
AcDbPolyline
 90
        4
 70
   128
 10
46.705742
 20
165.843474
 10
46.838862
 20
165.235115
 10
47.071945
 20
164.62404
 10
47.369841
 20
164.04975
  0
LINE
  5
2EA
100
AcDbEntity
  8
0
  6
HIDDEN
 62
   174
100
AcDbLine
 10
69.223813
 20
178.0
 30
0.0
 11
66.223863
 21
178.0
 31
0.0
  0
LINE
  5
2EB
100
AcDbEntity
  8
0
  6
HIDDEN
 62
   174
100
AcDbLine
 10
92.205742
 20
178.0
 30
0.0
 11
69.205742
 21
178.0
 31
0.0
  0
LINE
  5
2EC
100
AcDbEntity
  8
0
  6
HIDDEN
 62
   174
100
AcDbLine
 10
95.705742
 20
124.011243
 30
0.0
 11
95.705742
 21
127.01098
 31
0.0
  0
LINE
  5
2ED
100
AcDbEntity
  8
0
  6
HIDDEN
 62
   174
100
AcDbLine
 10
159.323853
 20
121.0
 30
0.0
 11
178.12378
 21
121.0
 31
0.0
  0
LINE
  5
2EE
100
AcDbEntity
  8
0
  6
HIDDEN
 62
   174
100
AcDbLine
 10
65.705742
 20
135.010493
 30
0.0
 11
65.705742
 21
145.010043
 31
0.0
  0
LINE
  5
2EF
100
AcDbEntity
  8
0
  6
Continuous
 62
   174
100
AcDbLine
 10
58.005742
 20
143.613879
 30
0.0
 11
64.205742
 21
143.613879
 31
0.0
  0
ARC
  5
2F0
100
AcDbEntity
  8
0
  6
HIDDEN
 62
   174
100
AcDbCircle
 10
236.205742
 20
178.0
 30
0.0
 40
3.0
100
AcDbArc
 50
18.0
 51
36.0
  0
LINE
  5
2F1
100
AcDbEntity
  8
0
  6
HIDDEN
 62
   174
100
AcDbLine
 10
92.205742
 20
152.0
 30
0.0
 11
69.205742
 21
152.0
 31
0.0
  0
LINE
  5
2F2
100
AcDbEntity
  8
0
  6
Continuous
 62
   174
100
AcDbLine
 10
213.205742
 20
152.0
 30
0.0
 11
213.205742
 21
178.0
 31
0.0
  0
LINE
  5
2F3
100
AcDbEntity
  8
0
  6
Continuous
 62
   174
100
AcDbLine
 10
258.705742
 20
166.743854
 30
0.0
 11
258.705742
 21
179.273031
 31
0.0
  0
LINE
  5
2F4
100
AcDbEntity
  8
0
  6
Continuous
 62
   174
100
AcDbLine
 10
46.705742
 20
180.808057
 30
0.0
 11
46.705742
 21
173.900015
 31
0.0
  0
LINE
  5
2F5
100
AcDbEntity
  8
0
  6
HIDDEN
 62
   174
100
AcDbLine
 10
47.398562
 20
181.999551
 30
0.0
 11
47.36971
 21
181.950027
 31
0.0
  0
LINE
  5
2F6
100
AcDbEntity
  8
0
  6
HIDDEN
 62
   174
100
AcDbLine
 10
58.005742
 20
143.615645
 30
0.0
 11
64.205742
 21
143.615645
 31
0.0
  0
LINE
  5
2F7
100
AcDbEntity
  8
0
  6
HIDDEN
 62
   174
100
AcDbLine
 10
239.205742
 20
170.224747
 30
0.0
 11
239.205742
 21
165.00893
 31
0.0
  0
LINE
  5
2F8
100
AcDbEntity
  8
0
  6
Continuous
 62
   174
100
AcDbLine
 10
247.405742
 20
140.081595
 30
0.0
 11
247.405742
 21
143.615645
 31
0.0
  0
LINE
  5
2F9
100
AcDbEntity
  8
0
  6
HIDDEN
 62
   174
100
AcDbLine
 10
236.223858
 20
152.0
 30
0.0
 11
239.223808
 21
152.0
 31
0.0
  0
LINE
  5
2FA
100
AcDbEntity
  8
0
  6
HIDDEN
 62
   174
100
AcDbLine
 10
82.605185
 20
181.0
 30
0.0
 11
83.348917
 21
181.0
 31
0.0
  0
LINE
  5
2FB
100
AcDbEntity
  8
0
  6
HIDDEN
 62
   174
100
AcDbLine
 10
142.225742
 20
151.0
 30
0.0
 11
142.225742
 21
165.0
 31
0.0
  0
LINE
  5
2FC
100
AcDbEntity
  8
0
  6
Continuous
 62
   174
100
AcDbLine
 10
111.705742
 20
105.0
 30
0.0
 11
95.705742
 21
105.0
 31
0.0
  0
LINE
  5
2FD
100
AcDbEntity
  8
0
  6
HIDDEN
 62
   174
100
AcDbLine
 10
254.205742
 20
166.508693
 30
0.0
 11
254.205742
 21
173.008442
 31
0.0
  0
ARC
  5
2FE
100
AcDbEntity
  8
0
  6
HIDDEN
 62
   174
100
AcDbCircle
 10
92.205742
 20
178.0
 30
0.0
 40
3.0
100
AcDbArc
 50
-288.0
 51
-270.0
  0
LINE
  5
2FF
100
AcDbEntity
  8
0
  6
HIDDEN
 62
   174
100
AcDbLine
 10
147.185742
 20
119.0
 30
0.0
 11
147.185742
 21
105.0
 31
0.0
  0
LINE
  5
300
100
AcDbEntity
  8
0
  6
HIDDEN
 62
   174
100
AcDbLine
 10
163.185742
 20
151.0
 30
0.0
 11
163.185742
 21
165.0
 31
0.0
  0
LWPOLYLINE
  5
301
100
AcDbEntity
  8
0
  6
HIDDEN
 62
   174
100
AcDbPolyline
 90
        4
 70
   128
 10
258.705742
 20
173.891611
 10
258.572621
 20
175.108327
 10
258.339536
 20
176.33049
 10
258.012921
 20
177.57766
  0
LINE
  5
302
100
AcDbEntity
  8
0
  6
Continuous
 62
   174
100
AcDbLine
 10
258.705742
 20
180.164604
 30
0.0
 11
258.705742
 21
180.808057
 31
0.0
  0
LWPOLYLINE
  5
303
100
AcDbEntity
  8
0
  6
HIDDEN
 62
   174
100
AcDbPolyline
 90
        4
 70
   128
 10
66.205742
 20
175.783882
 10
66.218302
 20
174.887147
 10
66.238707
 20
173.948993
 10
66.247702
 20
173.0
  0
ARC
  5
304
100
AcDbEntity
  8
0
  6
Continuous
 62
   174
100
AcDbCircle
 10
69.205742
 20
178.0
 30
0.0
 40
3.0
100
AcDbArc
 50
-270.0
 51
-180.0
  0
LINE
  5
305
100
AcDbEntity
  8
0
  6
HIDDEN
 62
   174
100
AcDbLine
 10
83.748917
 20
181.0
 30
0.0
 11
92.205742
 21
181.0
 31
0.0
  0
LINE
  5
306
100
AcDbEntity
  8
0
  6
HIDDEN
 62
   174
100
AcDbLine
 10
225.08058
 20
180.95
 30
0.0
 11
228.480537
 21
180.95
 31
0.0
  0
LINE
  5
307
100
AcDbEntity
  8
0
  6
HIDDEN
 62
   174
100
AcDbLine
 10
213.205742
 20
181.007955
 30
0.0
 11
213.205742
 21
178.008217
 31
0.0
  0
LINE
  5
308
100
AcDbEntity
  8
0
  6
Continuous
 62
   174
100
AcDbLine
 10
251.205742
 20
165.0
 30
0.0
 11
239.205742
 21
165.0
 31
0.0
  0
LINE
  5
309
100
AcDbEntity
  8
0
  6
Continuous
 62
   174
100
AcDbLine
 10
46.705742
 20
172.108389
 30
0.0
 11
46.705742
 21
173.891611
 31
0.0
  0
LWPOLYLINE
  5
30A
100
AcDbEntity
  8
0
  6
Continuous
 62
   174
100
AcDbPolyline
 90
        6
 70
   128
 10
46.855082
 20
165.27817
 10
46.804337
 20
165.489186
 10
46.727434
 20
166.211435
 10
46.804352
 20
166.933674
 10
47.032453
 20
167.670693
 10
47.398562
 20
168.42234
  0
LINE
  5
30B
100
AcDbEntity
  8
0
  6
Continuous
 62
   174
100
AcDbLine
 10
247.405742
 20
132.503367
 30
0.0
 11
247.405742
 21
137.503366
 31
0.0
  0
LINE
  5
30C
100
AcDbEntity
  8
0
  6
HIDDEN
 62
   174
100
AcDbLine
 10
146.105742
 20
119.0
 30
0.0
 11
146.105742
 21
105.0
 31
0.0
  0
LINE
  5
30D
100
AcDbEntity
  8
0
  6
Continuous
 62
   174
100
AcDbLine
 10
251.205742
 20
166.402265
 30
0.0
 11
251.205742
 21
173.008442
 31
0.0
  0
LINE
  5
30E
100
AcDbEntity
  8
0
  6
Continuous
 62
   174
100
AcDbLine
 10
51.205742
 20
166.294562
 30
0.0
 11
51.205742
 21
173.008442
 31
0.0
  0
LINE
  5
30F
100
AcDbEntity
  8
0
  6
HIDDEN
 62
   174
100
AcDbLine
 10
77.349242
 20
181.0
 30
0.0
 11
78.371734
 21
181.0
 31
0.0
  0
LINE
  5
310
100
AcDbEntity
  8
0
  6
HIDDEN
 62
   174
100
AcDbLine
 10
209.705742
 20
127.01098
 30
0.0
 11
209.705742
 21
124.011243
 31
0.0
  0
LINE
  5
311
100
AcDbEntity
  8
0
  6
Continuous
 62
   174
100
AcDbLine
 10
95.205742
 20
178.0
 30
0.0
 11
95.205742
 21
152.0
 31
0.0
  0
LINE
  5
312
100
AcDbEntity
  8
0
  6
Continuous
 62
   174
100
AcDbLine
 10
47.371884
 20
164.047875
 30
0.0
 11
46.855082
 21
165.27817
 31
0.0
  0
LINE
  5
313
100
AcDbEntity
  8
0
  6
HIDDEN
 62
   174
100
AcDbLine
 10
254.905742
 20
164.000449
 30
0.0
 11
254.905742
 21
168.42234
 31
0.0
  0
LINE
  5
314
100
AcDbEntity
  8
0
  6
HIDDEN
 62
   174
100
AcDbLine
 10
254.905742
 20
177.57766
 30
0.0
 11
254.905742
 21
181.999551
 31
0.0
  0
LINE
  5
315
100
AcDbEntity
  8
0
  6
HIDDEN
 62
   174
100
AcDbLine
 10
58.005742
 20
140.081595
 30
0.0
 11
64.205742
 21
140.081595
 31
0.0
  0
LINE
  5
316
100
AcDbEntity
  8
0
  6
HIDDEN
 62
   174
100
AcDbLine
 10
236.205742
 20
178.0
 30
0.0
 11
236.205742
 21
152.0
 31
0.0
  0
LINE
  5
317
100
AcDbEntity
  8
0
  6
Continuous
 62
   174
100
AcDbLine
 10
241.205742
 20
125.0
 30
0.0
 11
239.705742
 21
125.0
 31
0.0
  0
LINE
  5
318
100
AcDbEntity
  8
0
  6
Continuous
 62
   174
100
AcDbLine
 10
241.205742
 20
129.93488
 30
0.0
 11
241.205742
 21
126.398117
 31
0.0
  0
LINE
  5
319
100
AcDbEntity
  8
0
  6
Continuous
 62
   174
100
AcDbLine
 10
239.205742
 20
170.216118
 30
0.0
 11
239.205742
 21
152.0
 31
0.0
  0
LINE
  5
31A
100
AcDbEntity
  8
0
  6
Continuous
 62
   174
100
AcDbLine
 10
247.405742
 20
144.683005
 30
0.0
 11
241.205742
 21
144.683005
 31
0.0
  0
LINE
  5
31B
100
AcDbEntity
  8
0
  6
Continuous
 62
   174
100
AcDbLine
 10
247.405742
 20
137.503366
 30
0.0
 11
241.205742
 21
137.503366
 31
0.0
  0
LINE
  5
31C
100
AcDbEntity
  8
0
  6
HIDDEN
 62
   174
100
AcDbLine
 10
239.205742
 20
170.216118
 30
0.0
 11
239.205742
 21
165.0
 31
0.0
  0
LINE
  5
31D
100
AcDbEntity
  8
0
  6
Continuous
 62
   174
100
AcDbLine
 10
236.205742
 20
152.0
 30
0.0
 11
236.205742
 21
178.0
 31
0.0
  0
LINE
  5
31E
100
AcDbEntity
  8
0
  6
Continuous
 62
   174
100
AcDbLine
 10
210.205742
 20
178.0
 30
0.0
 11
210.205742
 21
152.0
 31
0.0
  0
LINE
  5
31F
100
AcDbEntity
  8
0
  6
HIDDEN
 62
   174
100
AcDbLine
 10
159.305742
 20
119.0
 30
0.0
 11
159.305742
 21
105.0
 31
0.0
  0
LINE
  5
320
100
AcDbEntity
  8
0
  6
Continuous
 62
   174
100
AcDbLine
 10
251.205742
 20
181.0
 30
0.0
 11
236.205742
 21
181.0
 31
0.0
  0
LINE
  5
321
100
AcDbEntity
  8
0
  6
Continuous
 62
   174
100
AcDbLine
 10
111.705742
 20
165.0
 30
0.0
 11
111.705742
 21
105.0
 31
0.0
  0
LINE
  5
322
100
AcDbEntity
  8
0
  6
HIDDEN
 62
   174
100
AcDbLine
 10
247.405742
 20
132.5
 30
0.0
 11
241.205742
 21
132.5
 31
0.0
  0
LINE
  5
323
100
AcDbEntity
  8
0
  6
Continuous
 62
   174
100
AcDbLine
 10
58.005742
 20
143.613879
 30
0.0
 11
58.005742
 21
140.0786
 31
0.0
  0
LINE
  5
324
100
AcDbEntity
  8
0
  6
Continuous
 62
   174
100
AcDbLine
 10
66.205742
 20
170.216118
 30
0.0
 11
66.205742
 21
152.0
 31
0.0
  0
LINE
  5
325
100
AcDbEntity
  8
0
  6
HIDDEN
 62
   174
100
AcDbLine
 10
179.185742
 20
119.0
 30
0.0
 11
179.185742
 21
105.0
 31
0.0
  0
LINE
  5
326
100
AcDbEntity
  8
0
  6
HIDDEN
 62
   174
100
AcDbLine
 10
95.705742
 20
124.0
 30
0.0
 11
65.705742
 21
124.0
 31
0.0
  0
LINE
  5
327
100
AcDbEntity
  8
0
  6
Continuous
 62
   174
100
AcDbLine
 10
209.705742
 20
165.0
 30
0.0
 11
209.705742
 21
105.0
 31
0.0
  0
LINE
  5
328
100
AcDbEntity
  8
0
  6
HIDDEN
 62
   174
100
AcDbLine
 10
227.039749
 20
181.0
 30
0.0
 11
227.449413
 21
181.0
 31
0.0
  0
LINE
  5
329
100
AcDbEntity
  8
0
  6
Continuous
 62
   174
100
AcDbLine
 10
95.205742
 20
152.0
 30
0.0
 11
95.205742
 21
178.0
 31
0.0
  0
ARC
  5
32A
100
AcDbEntity
  8
0
  6
Continuous
 62
   174
100
AcDbCircle
 10
136.705742
 20
155.0
 30
0.0
 40
3.3
100
AcDbArc
 50
0.0
 51
180.0
  0
LINE
  5
32B
100
AcDbEntity
  8
0
  6
HIDDEN
 62
   174
100
AcDbLine
 10
126.225742
 20
119.0
 30
0.0
 11
126.225742
 21
105.0
 31
0.0
  0
LINE
  5
32C
100
AcDbEntity
  8
0
  6
Continuous
 62
   174
100
AcDbLine
 10
51.205742
 20
179.722748
 30
0.0
 11
51.205742
 21
182.007867
 31
0.0
  0
LINE
  5
32D
100
AcDbEntity
  8
0
  6
Continuous
 62
   174
100
AcDbLine
 10
50.505742
 20
181.999551
 30
0.0
 11
47.398562
 21
181.999551
 31
0.0
  0
LINE
  5
32E
100
AcDbEntity
  8
0
  6
Continuous
 62
   174
100
AcDbLine
 10
247.405742
 20
126.387048
 30
0.0
 11
247.405742
 21
129.924066
 31
0.0
  0
ARC
  5
32F
100
AcDbEntity
  8
0
  6
HIDDEN
 62
   174
100
AcDbCircle
 10
236.205742
 20
178.0
 30
0.0
 40
3.0
100
AcDbArc
 50
36.0
 51
54.0
  0
LINE
  5
330
100
AcDbEntity
  8
0
  6
HIDDEN
 62
   174
100
AcDbLine
 10
228.062566
 20
181.0
 30
0.0
 11
228.462566
 21
181.0
 31
0.0
  0
LINE
  5
331
100
AcDbEntity
  8
0
  6
Continuous
 62
   174
100
AcDbLine
 10
239.705742
 20
152.0
 30
0.0
 11
209.705742
 21
152.0
 31
0.0
  0
LINE
  5
332
100
AcDbEntity
  8
0
  6
HIDDEN
 62
   174
100
AcDbLine
 10
83.367041
 20
180.95
 30
0.0
 11
78.389996
 21
180.95
 31
0.0
  0
LINE
  5
333
100
AcDbEntity
  8
0
  6
HIDDEN
 62
   174
100
AcDbLine
 10
227.036824
 20
180.95
 30
0.0
 11
222.809223
 21
180.95
 31
0.0
  0
LINE
  5
334
100
AcDbEntity
  8
0
  6
HIDDEN
 62
   174
100
AcDbLine
 10
147.185742
 20
119.0
 30
0.0
 11
147.185742
 21
105.0
 31
0.0
  0
LINE
  5
335
100
AcDbEntity
  8
0
  6
HIDDEN
 62
   174
100
AcDbLine
 10
239.705742
 20
127.0
 30
0.0
 11
209.705742
 21
127.0
 31
0.0
  0
LINE
  5
336
100
AcDbEntity
  8
0
  6
Continuous
 62
   174
100
AcDbLine
 10
254.205742
 20
179.722323
 30
0.0
 11
254.205742
 21
173.008442
 31
0.0
  0
LINE
  5
337
100
AcDbEntity
  8
0
  6
Continuous
 62
   174
100
AcDbLine
 10
64.205742
 20
145.0
 30
0.0
 11
65.705742
 21
145.0
 31
0.0
  0
LINE
  5
338
100
AcDbEntity
  8
0
  6
Continuous
 62
   174
100
AcDbLine
 10
111.705742
 20
165.0
 30
0.0
 11
95.705742
 21
165.0
 31
0.0
  0
LWPOLYLINE
  5
339
100
AcDbEntity
  8
0
  6
Continuous
 62
   174
100
AcDbPolyline
 90
        4
 70
   128
 10
239.205742
 20
170.216118
 10
239.193182
 20
171.112819
 10
239.172777
 20
172.050973
 10
239.163781
 20
173.0
  0
LINE
  5
33A
100
AcDbEntity
  8
0
  6
HIDDEN
 62
   174
100
AcDbLine
 10
239.223808
 20
178.0
 30
0.0
 11
236.223858
 21
178.0
 31
0.0
  0
LINE
  5
33B
100
AcDbEntity
  8
0
  6
Continuous
 62
   174
100
AcDbLine
 10
64.205742
 20
144.692246
 30
0.0
 11
64.205742
 21
145.010043
 31
0.0
  0
LINE
  5
33C
100
AcDbEntity
  8
0
  6
HIDDEN
 62
   174
100
AcDbLine
 10
95.205742
 20
178.0
 30
0.0
 11
95.205742
 21
152.0
 31
0.0
  0
LINE
  5
33D
100
AcDbEntity
  8
0
  6
HIDDEN
 62
   174
100
AcDbLine
 10
213.205742
 20
178.0
 30
0.0
 11
213.205742
 21
152.0
 31
0.0
  0
LINE
  5
33E
100
AcDbEntity
  8
0
  6
HIDDEN
 62
   174
100
AcDbLine
 10
69.205742
 20
178.008217
 30
0.0
 11
69.205742
 21
181.007955
 31
0.0
  0
LINE
  5
33F
100
AcDbEntity
  8
0
  6
HIDDEN
 62
   174
100
AcDbLine
 10
66.205742
 20
178.0
 30
0.0
 11
66.205742
 21
175.783882
 31
0.0
  0
LINE
  5
340
100
AcDbEntity
  8
0
  6
HIDDEN
 62
   174
100
AcDbLine
 10
254.205742
 20
173.008442
 30
0.0
 11
254.205742
 21
179.50798
 31
0.0
  0
LINE
  5
341
100
AcDbEntity
  8
0
  6
Continuous
 62
   174
100
AcDbLine
 10
251.205742
 20
165.00893
 30
0.0
 11
251.205742
 21
166.402265
 31
0.0
  0
LWPOLYLINE
  5
342
100
AcDbEntity
  8
0
  6
Continuous
 62
   174
100
AcDbPolyline
 90
        4
 70
   128
 10
258.705742
 20
165.843474
 10
258.572621
 20
165.235115
 10
258.339538
 20
164.62404
 10
258.041642
 20
164.04975
  0
LINE
  5
343
100
AcDbEntity
  8
0
  6
Continuous
 62
   174
100
AcDbLine
 10
92.205742
 20
181.0
 30
0.0
 11
69.205742
 21
181.0
 31
0.0
  0
LINE
  5
344
100
AcDbEntity
  8
0
  6
HIDDEN
 62
   174
100
AcDbLine
 10
127.305742
 20
119.0
 30
0.0
 11
127.305742
 21
105.0
 31
0.0
  0
LINE
  5
345
100
AcDbEntity
  8
0
  6
Continuous
 62
   174
100
AcDbLine
 10
54.205742
 20
181.007955
 30
0.0
 11
54.205742
 21
179.61462
 31
0.0
  0
LINE
  5
346
100
AcDbEntity
  8
0
  6
Continuous
 62
   174
100
AcDbLine
 10
50.505742
 20
164.000449
 30
0.0
 11
47.398562
 21
164.000449
 31
0.0
  0
LINE
  5
347
100
AcDbEntity
  8
0
  6
Continuous
 62
   174
100
AcDbLine
 10
254.905742
 20
164.000449
 30
0.0
 11
258.012921
 21
164.000449
 31
0.0
  0
LINE
  5
348
100
AcDbEntity
  8
0
  6
Continuous
 62
   174
100
AcDbLine
 10
64.205742
 20
136.506644
 30
0.0
 11
64.205742
 21
137.51038
 31
0.0
  0
LINE
  5
349
100
AcDbEntity
  8
0
  6
HIDDEN
 62
   174
100
AcDbLine
 10
213.223746
 20
178.0
 30
0.0
 11
210.223796
 21
178.0
 31
0.0
  0
LINE
  5
34A
100
AcDbEntity
  8
0
  6
Continuous
 62
   174
100
AcDbLine
 10
258.705742
 20
166.735085
 30
0.0
 11
258.705742
 21
165.843474
 31
0.0
  0
LWPOLYLINE
  5
34B
100
AcDbEntity
  8
0
  6
Continuous
 62
   174
100
AcDbPolyline
 90
        4
 70
   128
 10
258.012921
 20
168.578109
 10
258.340822
 20
167.951702
 10
258.573576
 20
167.340289
 10
258.705742
 20
166.735085
  0
LINE
  5
34C
100
AcDbEntity
  8
0
  6
Continuous
 62
   174
100
AcDbLine
 10
58.005742
 20
129.92107
 30
0.0
 11
58.005742
 21
126.385281
 31
0.0
  0
LINE
  5
34D
100
AcDbEntity
  8
0
  6
Continuous
 62
   174
100
AcDbLine
 10
239.205742
 20
175.783882
 30
0.0
 11
239.205742
 21
178.0
 31
0.0
  0
LINE
  5
34E
100
AcDbEntity
  8
0
  6
Continuous
 62
   174
100
AcDbLine
 10
239.205742
 20
152.0
 30
0.0
 11
239.205742
 21
170.216118
 31
0.0
  0
LINE
  5
34F
100
AcDbEntity
  8
0
  6
Continuous
 62
   174
100
AcDbLine
 10
95.705742
 20
152.0
 30
0.0
 11
65.705742
 21
152.0
 31
0.0
  0
LINE
  5
350
100
AcDbEntity
  8
0
  6
HIDDEN
 62
   174
100
AcDbLine
 10
76.967134
 20
180.95
 30
0.0
 11
80.367091
 21
180.95
 31
0.0
  0
LINE
  5
351
100
AcDbEntity
  8
0
  6
HIDDEN
 62
   174
100
AcDbLine
 10
77.980217
 20
180.95
 30
0.0
 11
77.367141
 21
180.95
 31
0.0
  0
LINE
  5
352
100
AcDbEntity
  8
0
  6
HIDDEN
 62
   174
100
AcDbLine
 10
146.105742
 20
119.0
 30
0.0
 11
146.105742
 21
105.0
 31
0.0
  0
LINE
  5
353
100
AcDbEntity
  8
0
  6
HIDDEN
 62
   174
100
AcDbLine
 10
51.205742
 20
179.50798
 30
0.0
 11
51.205742
 21
173.008442
 31
0.0
  0
LWPOLYLINE
  5
354
100
AcDbEntity
  8
0
  6
HIDDEN
 62
   174
100
AcDbPolyline
 90
        7
 70
   128
 10
47.398562
 20
177.421891
 10
47.032459
 20
175.91862
 10
46.80436
 20
174.44463
 10
46.727429
 20
173.000237
 10
46.804316
 20
171.555791
 10
47.032408
 20
170.08164
 10
47.398562
 20
168.578109
  0
LWPOLYLINE
  5
355
100
AcDbEntity
  8
0
  6
Continuous
 62
   174
100
AcDbPolyline
 90
        4
 70
   128
 10
258.705742
 20
179.264915
 10
258.572621
 20
178.656556
 10
258.339538
 20
178.045481
 10
258.012921
 20
177.421891
  0
LINE
  5
356
100
AcDbEntity
  8
0
  6
Continuous
 62
   174
100
AcDbLine
 10
247.405742
 20
132.503367
 30
0.0
 11
241.205742
 21
132.503367
 31
0.0
  0
LINE
  5
357
100
AcDbEntity
  8
0
  6
Continuous
 62
   174
100
AcDbLine
 10
58.005742
 20
137.5
 30
0.0
 11
64.205742
 21
137.5
 31
0.0
  0
LWPOLYLINE
  5
358
100
AcDbEntity
  8
0
  6
HIDDEN
 62
   174
100
AcDbPolyline
 90
        6
 70
   128
 10
69.205742
 20
181.0
 10
68.300426
 20
180.86014
 10
67.49212
 20
180.462418
 10
66.830273
 20
179.832252
 10
66.378447
 20
179.003198
 10
66.205742
 20
178.0
  0
LINE
  5
359
100
AcDbEntity
  8
0
  6
Continuous
 62
   174
100
AcDbLine
 10
69.205742
 20
178.0
 30
0.0
 11
69.205742
 21
152.0
 31
0.0
  0
LINE
  5
35A
100
AcDbEntity
  8
0
  6
HIDDEN
 62
   174
100
AcDbLine
 10
228.080742
 20
180.95
 30
0.0
 11
223.263233
 21
180.95
 31
0.0
  0
LINE
  5
35B
100
AcDbEntity
  8
0
  6
HIDDEN
 62
   174
100
AcDbLine
 10
92.205742
 20
178.008217
 30
0.0
 11
92.205742
 21
181.007955
 31
0.0
  0
LINE
  5
35C
100
AcDbEntity
  8
0
  6
HIDDEN
 62
   174
100
AcDbLine
 10
178.105742
 20
105.0
 30
0.0
 11
178.105742
 21
121.0
 31
0.0
  0
LINE
  5
35D
100
AcDbEntity
  8
0
  6
Continuous
 62
   174
100
AcDbLine
 10
46.705742
 20
180.8
 30
0.0
 11
47.373018
 21
181.955757
 31
0.0
  0
LINE
  5
35E
100
AcDbEntity
  8
0
  6
HIDDEN
 62
   174
100
AcDbLine
 10
162.105742
 20
165.0
 30
0.0
 11
162.105742
 21
149.0
 31
0.0
  0
LINE
  5
35F
100
AcDbEntity
  8
0
  6
Continuous
 62
   174
100
AcDbLine
 10
58.005742
 20
126.396418
 30
0.0
 11
58.005742
 21
125.328315
 31
0.0
  0
LINE
  5
360
100
AcDbEntity
  8
0
  6
HIDDEN
 62
   174
100
AcDbLine
 10
50.505742
 20
168.578109
 30
0.0
 11
47.398562
 21
168.578109
 31
0.0
  0
LINE
  5
361
100
AcDbEntity
  8
0
  6
Continuous
 62
   174
100
AcDbLine
 10
241.205742
 20
145.0
 30
0.0
 11
239.705742
 21
145.0
 31
0.0
  0
LINE
  5
362
100
AcDbEntity
  8
0
  6
Continuous
 62
   174
100
AcDbLine
 10
239.705742
 20
124.011243
 30
0.0
 11
239.705742
 21
127.01098
 31
0.0
  0
LINE
  5
363
100
AcDbEntity
  8
0
  6
Continuous
 62
   174
100
AcDbLine
 10
111.705742
 20
105.0
 30
0.0
 11
111.705742
 21
165.0
 31
0.0
  0
LWPOLYLINE
  5
364
100
AcDbEntity
  8
0
  6
Continuous
 62
   174
100
AcDbPolyline
 90
        4
 70
   128
 10
258.041683
 20
181.95018
 10
258.340822
 20
181.373143
 10
258.573576
 20
180.76173
 10
258.705742
 20
180.156526
  0
LINE
  5
365
100
AcDbEntity
  8
0
  6
HIDDEN
 62
   174
100
AcDbLine
 10
239.705742
 20
124.0
 30
0.0
 11
209.705742
 21
124.0
 31
0.0
  0
LINE
  5
366
100
AcDbEntity
  8
0
  6
Continuous
 62
   174
100
AcDbLine
 10
254.905742
 20
168.586692
 30
0.0
 11
254.905742
 21
173.008442
 31
0.0
  0
LINE
  5
367
100
AcDbEntity
  8
0
  6
Continuous
 62
   174
100
AcDbLine
 10
258.012921
 20
181.999551
 30
0.0
 11
258.041773
 21
181.950027
 31
0.0
  0
LWPOLYLINE
  5
368
100
AcDbEntity
  8
0
  6
Continuous
 62
   174
100
AcDbPolyline
 90
        4
 70
   128
 10
239.205742
 20
175.783882
 10
239.193181
 20
174.887147
 10
239.172776
 20
173.948993
 10
239.163781
 20
173.0
  0
LINE
  5
369
100
AcDbEntity
  8
0
  6
HIDDEN
 62
   174
100
AcDbLine
 10
66.205742
 20
170.216118
 30
0.0
 11
66.205742
 21
165.0
 31
0.0
  0
LINE
  5
36A
100
AcDbEntity
  8
0
  6
Continuous
 62
   174
100
AcDbLine
 10
254.205742
 20
166.294137
 30
0.0
 11
254.205742
 21
164.009017
 31
0.0
  0
LINE
  5
36B
100
AcDbEntity
  8
0
  6
Continuous
 62
   174
100
AcDbLine
 10
247.405742
 20
143.62563
 30
0.0
 11
247.405742
 21
144.693096
 31
0.0
  0
ENDBLK
  5
36C
100
AcDbEntity
  8
0
100
AcDbBlockEnd
  0
BLOCK
  5
36F
100
AcDbEntity
  8
0
100
AcDbBlockBegin
  2
*B6
 70
     0
 10
0.0
 20
0.0
 30
0.0
  3
*B6
  1

  0
LINE
  5
370
100
AcDbEntity
  8
0
  6
Continuous
 62
     0
100
AcDbLine
 10
169.12393
 20
15.275697
 30
0.0
 11
120.678838
 21
15.275697
 31
0.0
  0
SOLID
  5
371
100
AcDbEntity
  8
0
  6
Continuous
 62
     0
100
AcDbTrace
 10
165.623918
 20
15.875602
 30
0.0
 11
162.123905
 21
15.275697
 31
0.0
 12
165.623918
 22
14.675792
 32
0.0
 13
165.623918
 23
14.675792
 33
0.0
  0
SOLID
  5
372
100
AcDbEntity
  8
0
  6
Continuous
 62
     0
100
AcDbTrace
 10
139.823966
 20
14.675792
 30
0.0
 11
143.323978
 21
15.275697
 31
0.0
 12
139.823966
 22
15.875602
 32
0.0
 13
139.823966
 23
15.875602
 33
0.0
  0
ENDBLK
  5
373
100
AcDbEntity
  8
0
100
AcDbBlockEnd
  0
BLOCK
  5
376
100
AcDbEntity
  8
0
100
AcDbBlockBegin
  2
*B7
 70
     0
 10
0.0
 20
0.0
 30
0.0
  3
*B7
  1

  0
LINE
  5
377
100
AcDbEntity
  8
0
  6
Continuous
 62
     0
100
AcDbLine
 10
197.285902
 20
15.275697
 30
0.0
 11
172.623942
 21
15.275697
 31
0.0
  0
SOLID
  5
378
100
AcDbEntity
  8
0
  6
Continuous
 62
     0
100
AcDbTrace
 10
187.323952
 20
15.875602
 30
0.0
 11
183.82394
 21
15.275697
 31
0.0
 12
187.323952
 22
14.675792
 32
0.0
 13
187.323952
 23
14.675792
 33
0.0
  0
SOLID
  5
379
100
AcDbEntity
  8
0
  6
Continuous
 62
     0
100
AcDbTrace
 10
176.123955
 20
14.675792
 30
0.0
 11
179.623755
 21
15.275697
 31
0.0
 12
176.123955
 22
15.875602
 32
0.0
 13
176.123955
 23
15.875602
 33
0.0
  0
ENDBLK
  5
37A
100
AcDbEntity
  8
0
100
AcDbBlockEnd
  0
BLOCK
  5
37D
100
AcDbEntity
  8
0
100
AcDbBlockBegin
  2
*B8
 70
     0
 10
0.0
 20
0.0
 30
0.0
  3
*B8
  1

  0
LINE
  5
37E
100
AcDbEntity
  8
0
  6
Continuous
 62
     0
100
AcDbLine
 10
123.723824
 20
68.272759
 30
0.0
 11
181.723847
 21
68.272759
 31
0.0
  0
SOLID
  5
37F
100
AcDbEntity
  8
0
  6
Continuous
 62
     0
100
AcDbTrace
 10
127.223836
 20
68.872664
 30
0.0
 11
123.723824
 21
68.272759
 31
0.0
 12
127.223836
 22
67.672642
 32
0.0
 13
127.223836
 23
67.672642
 33
0.0
  0
SOLID
  5
380
100
AcDbEntity
  8
0
  6
Continuous
 62
     0
100
AcDbTrace
 10
178.223835
 20
67.672642
 30
0.0
 11
181.723847
 21
68.272759
 31
0.0
 12
178.223835
 22
68.872664
 32
0.0
 13
178.223835
 23
68.872664
 33
0.0
  0
ENDBLK
  5
381
100
AcDbEntity
  8
0
100
AcDbBlockEnd
  0
BLOCK
  5
384
100
AcDbEntity
  8
0
100
AcDbBlockBegin
  2
*B9
 70
     0
 10
0.0
 20
0.0
 30
0.0
  3
*B9
  1

  0
LINE
  5
385
100
AcDbEntity
  8
0
  6
Continuous
 62
     0
100
AcDbLine
 10
174.723822
 20
68.272759
 30
0.0
 11
200.723884
 21
68.272759
 31
0.0
  0
SOLID
  5
386
100
AcDbEntity
  8
0
  6
Continuous
 62
     0
100
AcDbTrace
 10
178.223835
 20
67.672642
 30
0.0
 11
181.723847
 21
68.272759
 31
0.0
 12
178.223835
 22
68.872664
 32
0.0
 13
178.223835
 23
68.872664
 33
0.0
  0
SOLID
  5
387
100
AcDbEntity
  8
0
  6
Continuous
 62
     0
100
AcDbTrace
 10
197.223872
 20
68.872664
 30
0.0
 11
193.723859
 21
68.272759
 31
0.0
 12
197.223872
 22
67.672642
 32
0.0
 13
197.223872
 23
67.672642
 33
0.0
  0
ENDBLK
  5
388
100
AcDbEntity
  8
0
100
AcDbBlockEnd
  0
BLOCK
  5
38B
100
AcDbEntity
  8
0
100
AcDbBlockBegin
  2
*B10
 70
     0
 10
0.0
 20
0.0
 30
0.0
  3
*B10
  1

  0
LINE
  5
38C
100
AcDbEntity
  8
0
  6
Continuous
 62
     0
100
AcDbLine
 10
130.723849
 20
68.272759
 30
0.0
 11
104.723787
 21
68.272759
 31
0.0
  0
SOLID
  5
38D
100
AcDbEntity
  8
0
  6
Continuous
 62
     0
100
AcDbTrace
 10
127.223836
 20
68.872664
 30
0.0
 11
123.723824
 21
68.272759
 31
0.0
 12
127.223836
 22
67.672642
 32
0.0
 13
127.223836
 23
67.672642
 33
0.0
  0
SOLID
  5
38E
100
AcDbEntity
  8
0
  6
Continuous
 62
     0
100
AcDbTrace
 10
108.223799
 20
67.672642
 30
0.0
 11
111.723812
 21
68.272759
 31
0.0
 12
108.223799
 22
68.872664
 32
0.0
 13
108.223799
 23
68.872664
 33
0.0
  0
ENDBLK
  5
38F
100
AcDbEntity
  8
0
100
AcDbBlockEnd
  0
BLOCK
  5
392
100
AcDbEntity
  8
0
100
AcDbBlockBegin
  2
*B11
 70
     0
 10
0.0
 20
0.0
 30
0.0
  3
*B11
  1

  0
LINE
  5
393
100
AcDbEntity
  8
0
  6
Continuous
 62
     0
100
AcDbLine
 10
152.723835
 20
180.008042
 30
0.0
 11
193.723859
 21
180.008042
 31
0.0
  0
SOLID
  5
394
100
AcDbEntity
  8
0
  6
Continuous
 62
     0
100
AcDbTrace
 10
156.223848
 20
180.607947
 30
0.0
 11
152.723835
 21
180.008042
 31
0.0
 12
156.223848
 22
179.408137
 32
0.0
 13
156.223848
 23
179.408137
 33
0.0
  0
SOLID
  5
395
100
AcDbEntity
  8
0
  6
Continuous
 62
     0
100
AcDbTrace
 10
190.223847
 20
179.408137
 30
0.0
 11
193.723859
 21
180.008042
 31
0.0
 12
190.223847
 22
180.607947
 32
0.0
 13
190.223847
 23
180.607947
 33
0.0
  0
ENDBLK
  5
396
100
AcDbEntity
  8
0
100
AcDbBlockEnd
  0
BLOCK
  5
399
100
AcDbEntity
  8
0
100
AcDbBlockBegin
  2
*B12
 70
     0
 10
0.0
 20
0.0
 30
0.0
  3
*B12
  1

  0
LINE
  5
39A
100
AcDbEntity
  8
0
  6
Continuous
 62
     0
100
AcDbLine
 10
168.723922
 20
93.012893
 30
0.0
 11
193.723859
 21
93.012893
 31
0.0
  0
SOLID
  5
39B
100
AcDbEntity
  8
0
  6
Continuous
 62
     0
100
AcDbTrace
 10
172.223935
 20
93.613011
 30
0.0
 11
168.723922
 21
93.012893
 31
0.0
 12
172.223935
 22
92.412988
 32
0.0
 13
172.223935
 23
92.412988
 33
0.0
  0
SOLID
  5
39C
100
AcDbEntity
  8
0
  6
Continuous
 62
     0
100
AcDbTrace
 10
190.223847
 20
92.412988
 30
0.0
 11
193.723859
 21
93.012893
 31
0.0
 12
190.223847
 22
93.613011
 32
0.0
 13
190.223847
 23
93.613011
 33
0.0
  0
ENDBLK
  5
39D
100
AcDbEntity
  8
0
100
AcDbBlockEnd
  0
BLOCK
  5
3A0
100
AcDbEntity
  8
0
100
AcDbBlockBegin
  2
*B13
 70
     0
 10
0.0
 20
0.0
 30
0.0
  3
*B13
  1

  0
LINE
  5
3A1
100
AcDbEntity
  8
0
  6
Continuous
 62
     0
100
AcDbLine
 10
136.723961
 20
93.012893
 30
0.0
 11
168.723922
 21
93.012893
 31
0.0
  0
SOLID
  5
3A2
100
AcDbEntity
  8
0
  6
Continuous
 62
     0
100
AcDbTrace
 10
140.223973
 20
93.613011
 30
0.0
 11
136.723961
 21
93.012893
 31
0.0
 12
140.223973
 22
92.412988
 32
0.0
 13
140.223973
 23
92.412988
 33
0.0
  0
SOLID
  5
3A3
100
AcDbEntity
  8
0
  6
Continuous
 62
     0
100
AcDbTrace
 10
165.22391
 20
92.412988
 30
0.0
 11
168.723922
 21
93.012893
 31
0.0
 12
165.22391
 22
93.613011
 32
0.0
 13
165.22391
 23
93.613011
 33
0.0
  0
ENDBLK
  5
3A4
100
AcDbEntity
  8
0
100
AcDbBlockEnd
  0
BLOCK
  5
3A7
100
AcDbEntity
  8
0
100
AcDbBlockBegin
  2
*B14
 70
     0
 10
0.0
 20
0.0
 30
0.0
  3
*B14
  1

  0
LINE
  5
3A8
100
AcDbEntity
  8
0
  6
Continuous
 62
     0
100
AcDbLine
 10
136.723961
 20
93.012893
 30
0.0
 11
111.723812
 21
93.012893
 31
0.0
  0
SOLID
  5
3A9
100
AcDbEntity
  8
0
  6
Continuous
 62
     0
100
AcDbTrace
 10
133.223948
 20
92.412988
 30
0.0
 11
136.723961
 21
93.012893
 31
0.0
 12
133.223948
 22
93.613011
 32
0.0
 13
133.223948
 23
93.613011
 33
0.0
  0
SOLID
  5
3AA
100
AcDbEntity
  8
0
  6
Continuous
 62
     0
100
AcDbTrace
 10
115.223824
 20
93.613011
 30
0.0
 11
111.723812
 21
93.012893
 31
0.0
 12
115.223824
 22
92.412988
 32
0.0
 13
115.223824
 23
92.412988
 33
0.0
  0
ENDBLK
  5
3AB
100
AcDbEntity
  8
0
100
AcDbBlockEnd
  0
BLOCK
  5
3AE
100
AcDbEntity
  8
0
100
AcDbBlockBegin
  2
*B15
 70
     0
 10
0.0
 20
0.0
 30
0.0
  3
*B15
  1

  0
LINE
  5
3AF
100
AcDbEntity
  8
0
  6
Continuous
 62
     0
100
AcDbLine
 10
209.723734
 20
80.013606
 30
0.0
 11
95.723937
 21
80.013606
 31
0.0
  0
SOLID
  5
3B0
100
AcDbEntity
  8
0
  6
Continuous
 62
     0
100
AcDbTrace
 10
206.223934
 20
79.413701
 30
0.0
 11
209.723734
 21
80.013606
 31
0.0
 12
206.223934
 22
80.613723
 32
0.0
 13
206.223934
 23
80.613723
 33
0.0
  0
SOLID
  5
3B1
100
AcDbEntity
  8
0
  6
Continuous
 62
     0
100
AcDbTrace
 10
99.223949
 20
80.613723
 30
0.0
 11
95.723937
 21
80.013606
 31
0.0
 12
99.223949
 22
79.413701
 32
0.0
 13
99.223949
 23
79.413701
 33
0.0
  0
ENDBLK
  5
3B2
100
AcDbEntity
  8
0
100
AcDbBlockEnd
  0
BLOCK
  5
3B5
100
AcDbEntity
  8
0
100
AcDbBlockBegin
  2
*B16
 70
     0
 10
0.0
 20
0.0
 30
0.0
  3
*B16
  1

  0
LINE
  5
3B6
100
AcDbEntity
  8
0
  6
Continuous
 62
     0
100
AcDbLine
 10
34.018268
 20
182.007442
 30
0.0
 11
34.018268
 21
105.012268
 31
0.0
  0
SOLID
  5
3B7
100
AcDbEntity
  8
0
  6
Continuous
 62
     0
100
AcDbTrace
 10
34.618173
 20
178.507643
 30
0.0
 11
34.018268
 21
182.007442
 31
0.0
 12
33.418151
 22
178.507643
 32
0.0
 13
33.418151
 23
178.507643
 33
0.0
  0
SOLID
  5
3B8
100
AcDbEntity
  8
0
  6
Continuous
 62
     0
100
AcDbTrace
 10
33.418151
 20
108.512068
 30
0.0
 11
34.018268
 21
105.012268
 31
0.0
 12
34.618173
 22
108.512068
 32
0.0
 13
34.618173
 23
108.512068
 33
0.0
  0
ENDBLK
  5
3B9
100
AcDbEntity
  8
0
100
AcDbBlockEnd
  0
BLOCK
  5
3BC
100
AcDbEntity
  8
0
100
AcDbBlockBegin
  2
*B17
 70
     0
 10
0.0
 20
0.0
 30
0.0
  3
*B17
  1

  0
LINE
  5
3BD
100
AcDbEntity
  8
0
  6
Continuous
 62
     0
100
AcDbLine
 10
95.723937
 20
192.007417
 30
0.0
 11
46.723976
 21
192.007417
 31
0.0
  0
SOLID
  5
3BE
100
AcDbEntity
  8
0
  6
Continuous
 62
     0
100
AcDbTrace
 10
92.223925
 20
191.407512
 30
0.0
 11
95.723937
 21
192.007417
 31
0.0
 12
92.223925
 22
192.607322
 32
0.0
 13
92.223925
 23
192.607322
 33
0.0
  0
SOLID
  5
3BF
100
AcDbEntity
  8
0
  6
Continuous
 62
     0
100
AcDbTrace
 10
50.223988
 20
192.607322
 30
0.0
 11
46.723976
 21
192.007417
 31
0.0
 12
50.223988
 22
191.407512
 32
0.0
 13
50.223988
 23
191.407512
 33
0.0
  0
ENDBLK
  5
3C0
100
AcDbEntity
  8
0
100
AcDbBlockEnd
  0
BLOCK
  5
3C3
100
AcDbEntity
  8
0
100
AcDbBlockBegin
  2
*B18
 70
     0
 10
0.0
 20
0.0
 30
0.0
  3
*B18
  1

  0
LINE
  5
3C4
100
AcDbEntity
  8
0
  6
Continuous
 62
     0
100
AcDbLine
 10
209.723734
 20
191.007505
 30
0.0
 11
258.723907
 21
191.007505
 31
0.0
  0
SOLID
  5
3C5
100
AcDbEntity
  8
0
  6
Continuous
 62
     0
100
AcDbTrace
 10
213.223746
 20
191.60741
 30
0.0
 11
209.723734
 21
191.007505
 31
0.0
 12
213.223746
 22
190.407387
 32
0.0
 13
213.223746
 23
190.407387
 33
0.0
  0
SOLID
  5
3C6
100
AcDbEntity
  8
0
  6
Continuous
 62
     0
100
AcDbTrace
 10
255.223895
 20
190.407387
 30
0.0
 11
258.723907
 21
191.007505
 31
0.0
 12
255.223895
 22
191.60741
 32
0.0
 13
255.223895
 23
191.60741
 33
0.0
  0
ENDBLK
  5
3C7
100
AcDbEntity
  8
0
100
AcDbBlockEnd
  0
BLOCK
  5
3CA
100
AcDbEntity
  8
0
100
AcDbBlockBegin
  2
*B19
 70
     0
 10
0.0
 20
0.0
 30
0.0
  3
*B19
  1

  0
LINE
  5
3CB
100
AcDbEntity
  8
0
  6
Continuous
 62
     0
100
AcDbLine
 10
204.018051
 20
115.011606
 30
0.0
 11
204.018051
 21
155.00938
 31
0.0
  0
SOLID
  5
3CC
100
AcDbEntity
  8
0
  6
Continuous
 62
     0
100
AcDbTrace
 10
203.418146
 20
118.511405
 30
0.0
 11
204.018051
 21
115.011606
 31
0.0
 12
204.618168
 22
118.511405
 32
0.0
 13
204.618168
 23
118.511405
 33
0.0
  0
SOLID
  5
3CD
100
AcDbEntity
  8
0
  6
Continuous
 62
     0
100
AcDbTrace
 10
204.618168
 20
151.50958
 30
0.0
 11
204.018051
 21
155.00938
 31
0.0
 12
203.418146
 22
151.50958
 32
0.0
 13
203.418146
 23
151.50958
 33
0.0
  0
ENDBLK
  5
3CE
100
AcDbEntity
  8
0
100
AcDbBlockEnd
  0
BLOCK
  5
3D1
100
AcDbEntity
  8
0
100
AcDbBlockBegin
  2
*B20
 70
     0
 10
0.0
 20
0.0
 30
0.0
  3
*B20
  1

  0
LINE
  5
3D2
100
AcDbEntity
  8
0
  6
Continuous
 62
     0
100
AcDbLine
 10
33.018143
 20
29.810861
 30
0.0
 11
33.018143
 21
59.809085
 31
0.0
  0
SOLID
  5
3D3
100
AcDbEntity
  8
0
  6
Continuous
 62
     0
100
AcDbTrace
 10
32.418238
 20
33.310661
 30
0.0
 11
33.018143
 21
29.810861
 31
0.0
 12
33.618261
 22
33.310661
 32
0.0
 13
33.618261
 23
33.310661
 33
0.0
  0
SOLID
  5
3D4
100
AcDbEntity
  8
0
  6
Continuous
 62
     0
100
AcDbTrace
 10
33.618261
 20
56.309285
 30
0.0
 11
33.018143
 21
59.809085
 31
0.0
 12
32.418238
 22
56.309285
 32
0.0
 13
32.418238
 23
56.309285
 33
0.0
  0
ENDBLK
  5
3D5
100
AcDbEntity
  8
0
100
AcDbBlockEnd
  0
BLOCK
  5
3D8
100
AcDbEntity
  8
0
100
AcDbBlockBegin
  2
*B21
 70
     0
 10
0.0
 20
0.0
 30
0.0
  3
*B21
  1

  0
LINE
  5
3D9
100
AcDbEntity
  8
0
  6
Continuous
 62
     0
100
AcDbLine
 10
228.018075
 20
165.00893
 30
0.0
 11
228.018075
 21
105.012268
 31
0.0
  0
SOLID
  5
3DA
100
AcDbEntity
  8
0
  6
Continuous
 62
     0
100
AcDbTrace
 10
228.618193
 20
161.50913
 30
0.0
 11
228.018075
 21
165.00893
 31
0.0
 12
227.41817
 22
161.50913
 32
0.0
 13
227.41817
 23
161.50913
 33
0.0
  0
SOLID
  5
3DB
100
AcDbEntity
  8
0
  6
Continuous
 62
     0
100
AcDbTrace
 10
227.41817
 20
108.512068
 30
0.0
 11
228.018075
 21
105.012268
 31
0.0
 12
228.618193
 22
108.512068
 32
0.0
 13
228.618193
 23
108.512068
 33
0.0
  0
ENDBLK
  5
3DC
100
AcDbEntity
  8
0
100
AcDbBlockEnd
  0
BLOCK
  5
3DF
100
AcDbEntity
  8
0
100
AcDbBlockBegin
  2
*B22
 70
     0
 10
0.0
 20
0.0
 30
0.0
  3
*B22
  1

  0
LINE
  5
3E0
100
AcDbEntity
  8
0
  6
Continuous
 62
     8
100
AcDbLine
 10
111.723812
 20
60.808998
 30
0.0
 11
111.723812
 21
70.272584
 31
0.0
  0
ENDBLK
  5
3E1
100
AcDbEntity
  8
0
100
AcDbBlockEnd
  0
BLOCK
  5
3E4
100
AcDbEntity
  8
0
100
AcDbBlockBegin
  2
*B23
 70
     0
 10
0.0
 20
0.0
 30
0.0
  3
*B23
  1

  0
LINE
  5
3E5
100
AcDbEntity
  8
0
  6
Continuous
 62
     8
100
AcDbLine
 10
111.723812
 20
91.013068
 30
0.0
 11
111.723812
 21
104.012356
 31
0.0
  0
ENDBLK
  5
3E6
100
AcDbEntity
  8
0
100
AcDbBlockEnd
  0
BLOCK
  5
3E9
100
AcDbEntity
  8
0
100
AcDbBlockBegin
  2
*B24
 70
     0
 10
0.0
 20
0.0
 30
0.0
  3
*B24
  1

  0
LINE
  5
3EA
100
AcDbEntity
  8
0
  6
Continuous
 62
     8
100
AcDbLine
 10
162.123905
 20
13.275872
 30
0.0
 11
162.123905
 21
43.810061
 31
0.0
  0
ENDBLK
  5
3EB
100
AcDbEntity
  8
0
100
AcDbBlockEnd
  0
BLOCK
  5
3EE
100
AcDbEntity
  8
0
100
AcDbBlockBegin
  2
*B25
 70
     0
 10
0.0
 20
0.0
 30
0.0
  3
*B25
  1

  0
LINE
  5
3EF
100
AcDbEntity
  8
0
  6
Continuous
 62
     8
100
AcDbLine
 10
31.018106
 20
59.809085
 30
0.0
 11
94.723812
 21
59.809085
 31
0.0
  0
ENDBLK
  5
3F0
100
AcDbEntity
  8
0
100
AcDbBlockEnd
  0
BLOCK
  5
3F3
100
AcDbEntity
  8
0
100
AcDbBlockBegin
  2
*B26
 70
     0
 10
0.0
 20
0.0
 30
0.0
  3
*B26
  1

  0
LINE
  5
3F4
100
AcDbEntity
  8
0
  6
Continuous
 62
     8
100
AcDbLine
 10
181.723847
 20
66.272722
 30
0.0
 11
181.723847
 21
70.272584
 31
0.0
  0
LINE
  5
3F5
100
AcDbEntity
  8
0
  6
Continuous
 62
     8
100
AcDbLine
 10
181.723847
 20
29.710806
 30
0.0
 11
181.723847
 21
33.310661
 31
0.0
  0
LINE
  5
3F6
100
AcDbEntity
  8
0
  6
Continuous
 62
     8
100
AcDbLine
 10
181.723847
 20
36.310398
 30
0.0
 11
181.723847
 21
41.55107
 31
0.0
  0
LINE
  5
3F7
100
AcDbEntity
  8
0
  6
Continuous
 62
     8
100
AcDbLine
 10
181.723847
 20
42.550982
 30
0.0
 11
181.723847
 21
43.551107
 31
0.0
  0
LINE
  5
3F8
100
AcDbEntity
  8
0
  6
Continuous
 62
     8
100
AcDbLine
 10
181.723847
 20
44.55102
 30
0.0
 11
181.723847
 21
49.791691
 31
0.0
  0
LINE
  5
3F9
100
AcDbEntity
  8
0
  6
Continuous
 62
     8
100
AcDbLine
 10
181.723847
 20
50.791604
 30
0.0
 11
181.723847
 21
51.791516
 31
0.0
  0
LINE
  5
3FA
100
AcDbEntity
  8
0
  6
Continuous
 62
     8
100
AcDbLine
 10
181.723847
 20
52.791429
 30
0.0
 11
181.723847
 21
58.032313
 31
0.0
  0
LINE
  5
3FB
100
AcDbEntity
  8
0
  6
Continuous
 62
     8
100
AcDbLine
 10
181.723847
 20
59.032225
 30
0.0
 11
181.723847
 21
60.032138
 31
0.0
  0
LINE
  5
3FC
100
AcDbEntity
  8
0
  6
Continuous
 62
     8
100
AcDbLine
 10
181.723847
 20
61.03205
 30
0.0
 11
181.723847
 21
66.272722
 31
0.0
  0
ENDBLK
  5
3FD
100
AcDbEntity
  8
0
100
AcDbBlockEnd
  0
BLOCK
  5
400
100
AcDbEntity
  8
0
100
AcDbBlockBegin
  2
*B27
 70
     0
 10
0.0
 20
0.0
 30
0.0
  3
*B27
  1

  0
LINE
  5
401
100
AcDbEntity
  8
0
  6
Continuous
 62
     8
100
AcDbLine
 10
181.723847
 20
102.012531
 30
0.0
 11
181.723847
 21
109.511981
 31
0.0
  0
LINE
  5
402
100
AcDbEntity
  8
0
  6
Continuous
 62
     8
100
AcDbLine
 10
181.723847
 20
110.511893
 30
0.0
 11
181.723847
 21
111.511806
 31
0.0
  0
LINE
  5
403
100
AcDbEntity
  8
0
  6
Continuous
 62
     8
100
AcDbLine
 10
181.723847
 20
112.51193
 30
0.0
 11
181.723847
 21
120.01138
 31
0.0
  0
ENDBLK
  5
404
100
AcDbEntity
  8
0
100
AcDbBlockEnd
  0
BLOCK
  5
407
100
AcDbEntity
  8
0
100
AcDbBlockBegin
  2
*B28
 70
     0
 10
0.0
 20
0.0
 30
0.0
  3
*B28
  1

  0
LINE
  5
408
100
AcDbEntity
  8
0
  6
Continuous
 62
     8
100
AcDbLine
 10
179.623755
 20
13.275872
 30
0.0
 11
179.623755
 21
33.810511
 31
0.0
  0
ENDBLK
  5
409
100
AcDbEntity
  8
0
100
AcDbBlockEnd
  0
BLOCK
  5
40C
100
AcDbEntity
  8
0
100
AcDbBlockBegin
  2
*B29
 70
     0
 10
0.0
 20
0.0
 30
0.0
  3
*B29
  1

  0
LINE
  5
40D
100
AcDbEntity
  8
0
  6
Continuous
 62
     8
100
AcDbLine
 10
209.723734
 20
78.013781
 30
0.0
 11
209.723734
 21
104.012356
 31
0.0
  0
LINE
  5
40E
100
AcDbEntity
  8
0
  6
Continuous
 62
     8
100
AcDbLine
 10
209.723734
 20
166.008842
 30
0.0
 11
209.723734
 21
193.00733
 31
0.0
  0
ENDBLK
  5
40F
100
AcDbEntity
  8
0
100
AcDbBlockEnd
  0
BLOCK
  5
412
100
AcDbEntity
  8
0
100
AcDbBlockBegin
  2
*B30
 70
     0
 10
0.0
 20
0.0
 30
0.0
  3
*B30
  1

  0
LINE
  5
413
100
AcDbEntity
  8
0
  6
Continuous
 62
     8
100
AcDbLine
 10
168.723922
 20
91.013068
 30
0.0
 11
168.723922
 21
95.012931
 31
0.0
  0
LINE
  5
414
100
AcDbEntity
  8
0
  6
Continuous
 62
     8
100
AcDbLine
 10
168.723922
 20
95.012931
 30
0.0
 11
168.723922
 21
100.798275
 31
0.0
  0
LINE
  5
415
100
AcDbEntity
  8
0
  6
Continuous
 62
     8
100
AcDbLine
 10
168.723922
 20
101.798188
 30
0.0
 11
168.723922
 21
102.7981
 31
0.0
  0
LINE
  5
416
100
AcDbEntity
  8
0
  6
Continuous
 62
     8
100
AcDbLine
 10
168.723922
 20
103.798013
 30
0.0
 11
168.723922
 21
109.583357
 31
0.0
  0
LINE
  5
417
100
AcDbEntity
  8
0
  6
Continuous
 62
     8
100
AcDbLine
 10
168.723922
 20
110.583482
 30
0.0
 11
168.723922
 21
111.583395
 31
0.0
  0
LINE
  5
418
100
AcDbEntity
  8
0
  6
Continuous
 62
     8
100
AcDbLine
 10
168.723922
 20
112.583307
 30
0.0
 11
168.723922
 21
118.368652
 31
0.0
  0
LINE
  5
419
100
AcDbEntity
  8
0
  6
Continuous
 62
     8
100
AcDbLine
 10
168.723922
 20
119.368564
 30
0.0
 11
168.723922
 21
120.368477
 31
0.0
  0
LINE
  5
41A
100
AcDbEntity
  8
0
  6
Continuous
 62
     8
100
AcDbLine
 10
168.723922
 20
121.368389
 30
0.0
 11
168.723922
 21
127.153946
 31
0.0
  0
LINE
  5
41B
100
AcDbEntity
  8
0
  6
Continuous
 62
     8
100
AcDbLine
 10
168.723922
 20
128.153859
 30
0.0
 11
168.723922
 21
129.153771
 31
0.0
  0
LINE
  5
41C
100
AcDbEntity
  8
0
  6
Continuous
 62
     8
100
AcDbLine
 10
168.723922
 20
130.153684
 30
0.0
 11
168.723922
 21
135.939029
 31
0.0
  0
LINE
  5
41D
100
AcDbEntity
  8
0
  6
Continuous
 62
     8
100
AcDbLine
 10
168.723922
 20
136.938941
 30
0.0
 11
168.723922
 21
137.939066
 31
0.0
  0
LINE
  5
41E
100
AcDbEntity
  8
0
  6
Continuous
 62
     8
100
AcDbLine
 10
168.723922
 20
138.938978
 30
0.0
 11
168.723922
 21
144.724323
 31
0.0
  0
LINE
  5
41F
100
AcDbEntity
  8
0
  6
Continuous
 62
     8
100
AcDbLine
 10
168.723922
 20
145.724236
 30
0.0
 11
168.723922
 21
146.724148
 31
0.0
  0
LINE
  5
420
100
AcDbEntity
  8
0
  6
Continuous
 62
     8
100
AcDbLine
 10
168.723922
 20
147.724061
 30
0.0
 11
168.723922
 21
153.509618
 31
0.0
  0
LINE
  5
421
100
AcDbEntity
  8
0
  6
Continuous
 62
     8
100
AcDbLine
 10
168.723922
 20
156.509355
 30
0.0
 11
168.723922
 21
161.30902
 31
0.0
  0
ENDBLK
  5
422
100
AcDbEntity
  8
0
100
AcDbBlockEnd
  0
BLOCK
  5
425
100
AcDbEntity
  8
0
100
AcDbBlockBegin
  2
*B31
 70
     0
 10
0.0
 20
0.0
 30
0.0
  3
*B31
  1

  0
LINE
  5
426
100
AcDbEntity
  8
0
  6
Continuous
 62
     8
100
AcDbLine
 10
198.723847
 20
38.810286
 30
0.0
 11
198.723847
 21
43.309998
 31
0.0
  0
LINE
  5
427
100
AcDbEntity
  8
0
  6
Continuous
 62
     8
100
AcDbLine
 10
198.723847
 20
46.309736
 30
0.0
 11
198.723847
 21
50.80966
 31
0.0
  0
ENDBLK
  5
428
100
AcDbEntity
  8
0
100
AcDbBlockEnd
  0
BLOCK
  5
42B
100
AcDbEntity
  8
0
100
AcDbBlockBegin
  2
*B32
 70
     0
 10
0.0
 20
0.0
 30
0.0
  3
*B32
  1

  0
LINE
  5
42C
100
AcDbEntity
  8
0
  6
Continuous
 62
     8
100
AcDbLine
 10
46.723976
 20
181.80712
 30
0.0
 11
46.723976
 21
194.007242
 31
0.0
  0
ENDBLK
  5
42D
100
AcDbEntity
  8
0
100
AcDbBlockEnd
  0
BLOCK
  5
430
100
AcDbEntity
  8
0
100
AcDbBlockBegin
  2
*B33
 70
     0
 10
0.0
 20
0.0
 30
0.0
  3
*B33
  1

  0
LINE
  5
431
100
AcDbEntity
  8
0
  6
Continuous
 62
     8
100
AcDbLine
 10
258.723907
 20
181.80712
 30
0.0
 11
258.723907
 21
193.00733
 31
0.0
  0
ENDBLK
  5
432
100
AcDbEntity
  8
0
100
AcDbBlockEnd
  0
BLOCK
  5
435
100
AcDbEntity
  8
0
100
AcDbBlockBegin
  2
*B34
 70
     0
 10
0.0
 20
0.0
 30
0.0
  3
*B34
  1

  0
LINE
  5
436
100
AcDbEntity
  8
0
  6
Continuous
 62
     8
100
AcDbLine
 10
106.723824
 20
38.810286
 30
0.0
 11
106.723824
 21
43.309998
 31
0.0
  0
LINE
  5
437
100
AcDbEntity
  8
0
  6
Continuous
 62
     8
100
AcDbLine
 10
106.723824
 20
46.309736
 30
0.0
 11
106.723824
 21
50.80966
 31
0.0
  0
ENDBLK
  5
438
100
AcDbEntity
  8
0
100
AcDbBlockEnd
  0
BLOCK
  5
43B
100
AcDbEntity
  8
0
100
AcDbBlockBegin
  2
*B35
 70
     0
 10
0.0
 20
0.0
 30
0.0
  3
*B35
  1

  0
LINE
  5
43C
100
AcDbEntity
  8
0
  6
Continuous
 62
     8
100
AcDbLine
 10
176.623805
 20
34.810423
 30
0.0
 11
180.223872
 21
34.810423
 31
0.0
  0
LINE
  5
43D
100
AcDbEntity
  8
0
  6
Continuous
 62
     8
100
AcDbLine
 10
183.223822
 20
34.810423
 30
0.0
 11
186.823889
 21
34.810423
 31
0.0
  0
ENDBLK
  5
43E
100
AcDbEntity
  8
0
100
AcDbBlockEnd
  0
BLOCK
  5
441
100
AcDbEntity
  8
0
100
AcDbBlockBegin
  2
*B36
 70
     0
 10
0.0
 20
0.0
 30
0.0
  3
*B36
  1

  0
LINE
  5
442
100
AcDbEntity
  8
0
  6
Continuous
 62
     8
100
AcDbLine
 10
32.018231
 20
105.012268
 30
0.0
 11
94.723812
 21
105.012268
 31
0.0
  0
ENDBLK
  5
443
100
AcDbEntity
  8
0
100
AcDbBlockEnd
  0
BLOCK
  5
446
100
AcDbEntity
  8
0
100
AcDbBlockBegin
  2
*B37
 70
     0
 10
0.0
 20
0.0
 30
0.0
  3
*B37
  1

  0
LINE
  5
447
100
AcDbEntity
  8
0
  6
Continuous
 62
     8
100
AcDbLine
 10
152.723835
 20
178.008217
 30
0.0
 11
152.723835
 21
182.007867
 31
0.0
  0
LINE
  5
448
100
AcDbEntity
  8
0
  6
Continuous
 62
     8
100
AcDbLine
 10
152.723835
 20
108.711966
 30
0.0
 11
152.723835
 21
113.511843
 31
0.0
  0
LINE
  5
449
100
AcDbEntity
  8
0
  6
Continuous
 62
     8
100
AcDbLine
 10
152.723835
 20
116.51158
 30
0.0
 11
152.723835
 21
121.57381
 31
0.0
  0
LINE
  5
44A
100
AcDbEntity
  8
0
  6
Continuous
 62
     8
100
AcDbLine
 10
152.723835
 20
122.573723
 30
0.0
 11
152.723835
 21
123.573635
 31
0.0
  0
LINE
  5
44B
100
AcDbEntity
  8
0
  6
Continuous
 62
     8
100
AcDbLine
 10
152.723835
 20
124.57376
 30
0.0
 11
152.723835
 21
129.635777
 31
0.0
  0
LINE
  5
44C
100
AcDbEntity
  8
0
  6
Continuous
 62
     8
100
AcDbLine
 10
152.723835
 20
130.635902
 30
0.0
 11
152.723835
 21
131.635815
 31
0.0
  0
LINE
  5
44D
100
AcDbEntity
  8
0
  6
Continuous
 62
     8
100
AcDbLine
 10
152.723835
 20
132.635727
 30
0.0
 11
152.723835
 21
137.697957
 31
0.0
  0
LINE
  5
44E
100
AcDbEntity
  8
0
  6
Continuous
 62
     8
100
AcDbLine
 10
152.723835
 20
138.697869
 30
0.0
 11
152.723835
 21
139.697782
 31
0.0
  0
LINE
  5
44F
100
AcDbEntity
  8
0
  6
Continuous
 62
     8
100
AcDbLine
 10
152.723835
 20
140.697694
 30
0.0
 11
152.723835
 21
145.759924
 31
0.0
  0
LINE
  5
450
100
AcDbEntity
  8
0
  6
Continuous
 62
     8
100
AcDbLine
 10
152.723835
 20
146.759836
 30
0.0
 11
152.723835
 21
147.759749
 31
0.0
  0
LINE
  5
451
100
AcDbEntity
  8
0
  6
Continuous
 62
     8
100
AcDbLine
 10
152.723835
 20
148.759874
 30
0.0
 11
152.723835
 21
153.822104
 31
0.0
  0
LINE
  5
452
100
AcDbEntity
  8
0
  6
Continuous
 62
     8
100
AcDbLine
 10
152.723835
 20
154.822016
 30
0.0
 11
152.723835
 21
155.821929
 31
0.0
  0
LINE
  5
453
100
AcDbEntity
  8
0
  6
Continuous
 62
     8
100
AcDbLine
 10
152.723835
 20
156.821841
 30
0.0
 11
152.723835
 21
161.884071
 31
0.0
  0
LINE
  5
454
100
AcDbEntity
  8
0
  6
Continuous
 62
     8
100
AcDbLine
 10
152.723835
 20
162.883983
 30
0.0
 11
152.723835
 21
163.883896
 31
0.0
  0
LINE
  5
455
100
AcDbEntity
  8
0
  6
Continuous
 62
     8
100
AcDbLine
 10
152.723835
 20
164.883808
 30
0.0
 11
152.723835
 21
169.946038
 31
0.0
  0
LINE
  5
456
100
AcDbEntity
  8
0
  6
Continuous
 62
     8
100
AcDbLine
 10
152.723835
 20
170.94595
 30
0.0
 11
152.723835
 21
171.946075
 31
0.0
  0
LINE
  5
457
100
AcDbEntity
  8
0
  6
Continuous
 62
     8
100
AcDbLine
 10
152.723835
 20
172.945988
 30
0.0
 11
152.723835
 21
178.008217
 31
0.0
  0
ENDBLK
  5
458
100
AcDbEntity
  8
0
100
AcDbBlockEnd
  0
BLOCK
  5
45B
100
AcDbEntity
  8
0
100
AcDbBlockBegin
  2
*B38
 70
     0
 10
0.0
 20
0.0
 30
0.0
  3
*B38
  1

  0
LINE
  5
45C
100
AcDbEntity
  8
0
  6
Continuous
 62
     8
100
AcDbLine
 10
32.018231
 20
182.007442
 30
0.0
 11
46.416801
 21
182.007442
 31
0.0
  0
ENDBLK
  5
45D
100
AcDbEntity
  8
0
100
AcDbBlockEnd
  0
BLOCK
  5
460
100
AcDbEntity
  8
0
100
AcDbBlockBegin
  2
*B39
 70
     0
 10
0.0
 20
0.0
 30
0.0
  3
*B39
  1

  0
LINE
  5
461
100
AcDbEntity
  8
0
  6
Continuous
 62
     8
100
AcDbLine
 10
118.623781
 20
54.80931
 30
0.0
 11
122.223849
 21
54.80931
 31
0.0
  0
LINE
  5
462
100
AcDbEntity
  8
0
  6
Continuous
 62
     8
100
AcDbLine
 10
125.223799
 20
54.80931
 30
0.0
 11
128.823866
 21
54.80931
 31
0.0
  0
ENDBLK
  5
463
100
AcDbEntity
  8
0
100
AcDbBlockEnd
  0
BLOCK
  5
466
100
AcDbEntity
  8
0
100
AcDbBlockBegin
  2
*B40
 70
     0
 10
0.0
 20
0.0
 30
0.0
  3
*B40
  1

  0
LINE
  5
467
100
AcDbEntity
  8
0
  6
Continuous
 62
     8
100
AcDbLine
 10
123.723824
 20
102.012531
 30
0.0
 11
123.723824
 21
109.511981
 31
0.0
  0
LINE
  5
468
100
AcDbEntity
  8
0
  6
Continuous
 62
     8
100
AcDbLine
 10
123.723824
 20
110.511893
 30
0.0
 11
123.723824
 21
111.511806
 31
0.0
  0
LINE
  5
469
100
AcDbEntity
  8
0
  6
Continuous
 62
     8
100
AcDbLine
 10
123.723824
 20
112.51193
 30
0.0
 11
123.723824
 21
120.01138
 31
0.0
  0
ENDBLK
  5
46A
100
AcDbEntity
  8
0
100
AcDbBlockEnd
  0
BLOCK
  5
46D
100
AcDbEntity
  8
0
100
AcDbBlockBegin
  2
*B41
 70
     0
 10
0.0
 20
0.0
 30
0.0
  3
*B41
  1

  0
LINE
  5
46E
100
AcDbEntity
  8
0
  6
Continuous
 62
     8
100
AcDbLine
 10
143.323978
 20
13.275872
 30
0.0
 11
143.323978
 21
43.810061
 31
0.0
  0
ENDBLK
  5
46F
100
AcDbEntity
  8
0
100
AcDbBlockEnd
  0
BLOCK
  5
472
100
AcDbEntity
  8
0
100
AcDbBlockBegin
  2
*B42
 70
     0
 10
0.0
 20
0.0
 30
0.0
  3
*B42
  1

  0
LINE
  5
473
100
AcDbEntity
  8
0
  6
Continuous
 62
     8
100
AcDbLine
 10
202.018013
 20
115.011606
 30
0.0
 11
206.018088
 21
115.011606
 31
0.0
  0
LINE
  5
474
100
AcDbEntity
  8
0
  6
Continuous
 62
     8
100
AcDbLine
 10
146.423771
 20
115.011606
 30
0.0
 11
151.223861
 21
115.011606
 31
0.0
  0
LINE
  5
475
100
AcDbEntity
  8
0
  6
Continuous
 62
     8
100
AcDbLine
 10
154.22381
 20
115.011606
 30
0.0
 11
159.689659
 21
115.011606
 31
0.0
  0
LINE
  5
476
100
AcDbEntity
  8
0
  6
Continuous
 62
     8
100
AcDbLine
 10
160.689571
 20
115.011606
 30
0.0
 11
161.689484
 21
115.011606
 31
0.0
  0
LINE
  5
477
100
AcDbEntity
  8
0
  6
Continuous
 62
     8
100
AcDbLine
 10
162.689609
 20
115.011606
 30
0.0
 11
168.155245
 21
115.011606
 31
0.0
  0
LINE
  5
478
100
AcDbEntity
  8
0
  6
Continuous
 62
     8
100
AcDbLine
 10
169.15537
 20
115.011606
 30
0.0
 11
170.155282
 21
115.011606
 31
0.0
  0
LINE
  5
479
100
AcDbEntity
  8
0
  6
Continuous
 62
     8
100
AcDbLine
 10
171.155195
 20
115.011606
 30
0.0
 11
176.621043
 21
115.011606
 31
0.0
  0
LINE
  5
47A
100
AcDbEntity
  8
0
  6
Continuous
 62
     8
100
AcDbLine
 10
177.620956
 20
115.011606
 30
0.0
 11
178.621081
 21
115.011606
 31
0.0
  0
LINE
  5
47B
100
AcDbEntity
  8
0
  6
Continuous
 62
     8
100
AcDbLine
 10
179.620993
 20
115.011606
 30
0.0
 11
185.086629
 21
115.011606
 31
0.0
  0
LINE
  5
47C
100
AcDbEntity
  8
0
  6
Continuous
 62
     8
100
AcDbLine
 10
186.086754
 20
115.011606
 30
0.0
 11
187.086667
 21
115.011606
 31
0.0
  0
LINE
  5
47D
100
AcDbEntity
  8
0
  6
Continuous
 62
     8
100
AcDbLine
 10
188.086792
 20
115.011606
 30
0.0
 11
193.552428
 21
115.011606
 31
0.0
  0
LINE
  5
47E
100
AcDbEntity
  8
0
  6
Continuous
 62
     8
100
AcDbLine
 10
194.55234
 20
115.011606
 30
0.0
 11
195.552465
 21
115.011606
 31
0.0
  0
LINE
  5
47F
100
AcDbEntity
  8
0
  6
Continuous
 62
     8
100
AcDbLine
 10
196.552377
 20
115.011606
 30
0.0
 11
202.018013
 21
115.011606
 31
0.0
  0
ENDBLK
  5
480
100
AcDbEntity
  8
0
100
AcDbBlockEnd
  0
BLOCK
  5
483
100
AcDbEntity
  8
0
100
AcDbBlockBegin
  2
*B43
 70
     0
 10
0.0
 20
0.0
 30
0.0
  3
*B43
  1

  0
LINE
  5
484
100
AcDbEntity
  8
0
  6
Continuous
 62
     8
100
AcDbLine
 10
183.82394
 20
13.275872
 30
0.0
 11
183.82394
 21
33.810511
 31
0.0
  0
ENDBLK
  5
485
100
AcDbEntity
  8
0
100
AcDbBlockEnd
  0
BLOCK
  5
488
100
AcDbEntity
  8
0
100
AcDbBlockBegin
  2
*B44
 70
     0
 10
0.0
 20
0.0
 30
0.0
  3
*B44
  1

  0
LINE
  5
489
100
AcDbEntity
  8
0
  6
Continuous
 62
     8
100
AcDbLine
 10
48.223951
 20
44.809973
 30
0.0
 11
53.795377
 21
44.809973
 31
0.0
  0
LINE
  5
48A
100
AcDbEntity
  8
0
  6
Continuous
 62
     8
100
AcDbLine
 10
54.79529
 20
44.809973
 30
0.0
 11
55.795415
 21
44.809973
 31
0.0
  0
LINE
  5
48B
100
AcDbEntity
  8
0
  6
Continuous
 62
     8
100
AcDbLine
 10
56.795327
 20
44.809973
 30
0.0
 11
62.366754
 21
44.809973
 31
0.0
  0
LINE
  5
48C
100
AcDbEntity
  8
0
  6
Continuous
 62
     8
100
AcDbLine
 10
63.366667
 20
44.809973
 30
0.0
 11
64.366791
 21
44.809973
 31
0.0
  0
LINE
  5
48D
100
AcDbEntity
  8
0
  6
Continuous
 62
     8
100
AcDbLine
 10
65.366704
 20
44.809973
 30
0.0
 11
70.938131
 21
44.809973
 31
0.0
  0
LINE
  5
48E
100
AcDbEntity
  8
0
  6
Continuous
 62
     8
100
AcDbLine
 10
71.938256
 20
44.809973
 30
0.0
 11
72.938168
 21
44.809973
 31
0.0
  0
LINE
  5
48F
100
AcDbEntity
  8
0
  6
Continuous
 62
     8
100
AcDbLine
 10
73.938293
 20
44.809973
 30
0.0
 11
79.50972
 21
44.809973
 31
0.0
  0
LINE
  5
490
100
AcDbEntity
  8
0
  6
Continuous
 62
     8
100
AcDbLine
 10
80.509632
 20
44.809973
 30
0.0
 11
81.509545
 21
44.809973
 31
0.0
  0
LINE
  5
491
100
AcDbEntity
  8
0
  6
Continuous
 62
     8
100
AcDbLine
 10
82.50967
 20
44.809973
 30
0.0
 11
88.081096
 21
44.809973
 31
0.0
  0
LINE
  5
492
100
AcDbEntity
  8
0
  6
Continuous
 62
     8
100
AcDbLine
 10
89.081009
 20
44.809973
 30
0.0
 11
90.081134
 21
44.809973
 31
0.0
  0
LINE
  5
493
100
AcDbEntity
  8
0
  6
Continuous
 62
     8
100
AcDbLine
 10
91.081046
 20
44.809973
 30
0.0
 11
96.652473
 21
44.809973
 31
0.0
  0
LINE
  5
494
100
AcDbEntity
  8
0
  6
Continuous
 62
     8
100
AcDbLine
 10
97.652385
 20
44.809973
 30
0.0
 11
98.65251
 21
44.809973
 31
0.0
  0
LINE
  5
495
100
AcDbEntity
  8
0
  6
Continuous
 62
     8
100
AcDbLine
 10
99.652423
 20
44.809973
 30
0.0
 11
105.223849
 21
44.809973
 31
0.0
  0
LINE
  5
496
100
AcDbEntity
  8
0
  6
Continuous
 62
     8
100
AcDbLine
 10
108.223799
 20
44.809973
 30
0.0
 11
114.423809
 21
44.809973
 31
0.0
  0
LINE
  5
497
100
AcDbEntity
  8
0
  6
Continuous
 62
     8
100
AcDbLine
 10
115.423934
 20
44.809973
 30
0.0
 11
116.423846
 21
44.809973
 31
0.0
  0
LINE
  5
498
100
AcDbEntity
  8
0
  6
Continuous
 62
     8
100
AcDbLine
 10
117.423971
 20
44.809973
 30
0.0
 11
123.623981
 21
44.809973
 31
0.0
  0
LINE
  5
499
100
AcDbEntity
  8
0
  6
Continuous
 62
     8
100
AcDbLine
 10
124.623894
 20
44.809973
 30
0.0
 11
125.623806
 21
44.809973
 31
0.0
  0
LINE
  5
49A
100
AcDbEntity
  8
0
  6
Continuous
 62
     8
100
AcDbLine
 10
126.623931
 20
44.809973
 30
0.0
 11
132.823941
 21
44.809973
 31
0.0
  0
LINE
  5
49B
100
AcDbEntity
  8
0
  6
Continuous
 62
     8
100
AcDbLine
 10
133.823853
 20
44.809973
 30
0.0
 11
134.823766
 21
44.809973
 31
0.0
  0
LINE
  5
49C
100
AcDbEntity
  8
0
  6
Continuous
 62
     8
100
AcDbLine
 10
135.823891
 20
44.809973
 30
0.0
 11
142.023901
 21
44.809973
 31
0.0
  0
LINE
  5
49D
100
AcDbEntity
  8
0
  6
Continuous
 62
     8
100
AcDbLine
 10
143.023813
 20
44.809973
 30
0.0
 11
144.023938
 21
44.809973
 31
0.0
  0
LINE
  5
49E
100
AcDbEntity
  8
0
  6
Continuous
 62
     8
100
AcDbLine
 10
145.023851
 20
44.809973
 30
0.0
 11
151.223861
 21
44.809973
 31
0.0
  0
LINE
  5
49F
100
AcDbEntity
  8
0
  6
Continuous
 62
     8
100
AcDbLine
 10
154.22381
 20
44.809973
 30
0.0
 11
160.42382
 21
44.809973
 31
0.0
  0
LINE
  5
4A0
100
AcDbEntity
  8
0
  6
Continuous
 62
     8
100
AcDbLine
 10
161.423945
 20
44.809973
 30
0.0
 11
162.423858
 21
44.809973
 31
0.0
  0
LINE
  5
4A1
100
AcDbEntity
  8
0
  6
Continuous
 62
     8
100
AcDbLine
 10
163.42377
 20
44.809973
 30
0.0
 11
169.62378
 21
44.809973
 31
0.0
  0
LINE
  5
4A2
100
AcDbEntity
  8
0
  6
Continuous
 62
     8
100
AcDbLine
 10
170.623905
 20
44.809973
 30
0.0
 11
171.623817
 21
44.809973
 31
0.0
  0
LINE
  5
4A3
100
AcDbEntity
  8
0
  6
Continuous
 62
     8
100
AcDbLine
 10
172.623942
 20
44.809973
 30
0.0
 11
178.823952
 21
44.809973
 31
0.0
  0
LINE
  5
4A4
100
AcDbEntity
  8
0
  6
Continuous
 62
     8
100
AcDbLine
 10
179.823865
 20
44.809973
 30
0.0
 11
180.823777
 21
44.809973
 31
0.0
  0
LINE
  5
4A5
100
AcDbEntity
  8
0
  6
Continuous
 62
     8
100
AcDbLine
 10
181.823902
 20
44.809973
 30
0.0
 11
188.023912
 21
44.809973
 31
0.0
  0
LINE
  5
4A6
100
AcDbEntity
  8
0
  6
Continuous
 62
     8
100
AcDbLine
 10
189.023824
 20
44.809973
 30
0.0
 11
190.023737
 21
44.809973
 31
0.0
  0
LINE
  5
4A7
100
AcDbEntity
  8
0
  6
Continuous
 62
     8
100
AcDbLine
 10
191.023862
 20
44.809973
 30
0.0
 11
197.223872
 21
44.809973
 31
0.0
  0
LINE
  5
4A8
100
AcDbEntity
  8
0
  6
Continuous
 62
     8
100
AcDbLine
 10
200.223822
 20
44.809973
 30
0.0
 11
205.795248
 21
44.809973
 31
0.0
  0
LINE
  5
4A9
100
AcDbEntity
  8
0
  6
Continuous
 62
     8
100
AcDbLine
 10
206.795161
 20
44.809973
 30
0.0
 11
207.795286
 21
44.809973
 31
0.0
  0
LINE
  5
4AA
100
AcDbEntity
  8
0
  6
Continuous
 62
     8
100
AcDbLine
 10
208.795198
 20
44.809973
 30
0.0
 11
214.366625
 21
44.809973
 31
0.0
  0
LINE
  5
4AB
100
AcDbEntity
  8
0
  6
Continuous
 62
     8
100
AcDbLine
 10
215.36675
 20
44.809973
 30
0.0
 11
216.366662
 21
44.809973
 31
0.0
  0
LINE
  5
4AC
100
AcDbEntity
  8
0
  6
Continuous
 62
     8
100
AcDbLine
 10
217.366787
 20
44.809973
 30
0.0
 11
222.938214
 21
44.809973
 31
0.0
  0
LINE
  5
4AD
100
AcDbEntity
  8
0
  6
Continuous
 62
     8
100
AcDbLine
 10
223.938126
 20
44.809973
 30
0.0
 11
224.938039
 21
44.809973
 31
0.0
  0
LINE
  5
4AE
100
AcDbEntity
  8
0
  6
Continuous
 62
     8
100
AcDbLine
 10
225.938164
 20
44.809973
 30
0.0
 11
231.50959
 21
44.809973
 31
0.0
  0
LINE
  5
4AF
100
AcDbEntity
  8
0
  6
Continuous
 62
     8
100
AcDbLine
 10
232.509503
 20
44.809973
 30
0.0
 11
233.509628
 21
44.809973
 31
0.0
  0
LINE
  5
4B0
100
AcDbEntity
  8
0
  6
Continuous
 62
     8
100
AcDbLine
 10
234.50954
 20
44.809973
 30
0.0
 11
240.080967
 21
44.809973
 31
0.0
  0
LINE
  5
4B1
100
AcDbEntity
  8
0
  6
Continuous
 62
     8
100
AcDbLine
 10
241.080879
 20
44.809973
 30
0.0
 11
242.081004
 21
44.809973
 31
0.0
  0
LINE
  5
4B2
100
AcDbEntity
  8
0
  6
Continuous
 62
     8
100
AcDbLine
 10
243.080917
 20
44.809973
 30
0.0
 11
248.652344
 21
44.809973
 31
0.0
  0
LINE
  5
4B3
100
AcDbEntity
  8
0
  6
Continuous
 62
     8
100
AcDbLine
 10
249.652468
 20
44.809973
 30
0.0
 11
250.652381
 21
44.809973
 31
0.0
  0
LINE
  5
4B4
100
AcDbEntity
  8
0
  6
Continuous
 62
     8
100
AcDbLine
 10
251.652293
 20
44.809973
 30
0.0
 11
257.223933
 21
44.809973
 31
0.0
  0
ENDBLK
  5
4B5
100
AcDbEntity
  8
0
100
AcDbBlockEnd
  0
BLOCK
  5
4B8
100
AcDbEntity
  8
0
100
AcDbBlockBegin
  2
*B45
 70
     0
 10
0.0
 20
0.0
 30
0.0
  3
*B45
  1

  0
LINE
  5
4B9
100
AcDbEntity
  8
0
  6
Continuous
 62
     8
100
AcDbLine
 10
136.723961
 20
91.013068
 30
0.0
 11
136.723961
 21
95.012931
 31
0.0
  0
LINE
  5
4BA
100
AcDbEntity
  8
0
  6
Continuous
 62
     8
100
AcDbLine
 10
136.723961
 20
95.012931
 30
0.0
 11
136.723961
 21
100.798275
 31
0.0
  0
LINE
  5
4BB
100
AcDbEntity
  8
0
  6
Continuous
 62
     8
100
AcDbLine
 10
136.723961
 20
101.798188
 30
0.0
 11
136.723961
 21
102.7981
 31
0.0
  0
LINE
  5
4BC
100
AcDbEntity
  8
0
  6
Continuous
 62
     8
100
AcDbLine
 10
136.723961
 20
103.798013
 30
0.0
 11
136.723961
 21
109.583357
 31
0.0
  0
LINE
  5
4BD
100
AcDbEntity
  8
0
  6
Continuous
 62
     8
100
AcDbLine
 10
136.723961
 20
110.583482
 30
0.0
 11
136.723961
 21
111.583395
 31
0.0
  0
LINE
  5
4BE
100
AcDbEntity
  8
0
  6
Continuous
 62
     8
100
AcDbLine
 10
136.723961
 20
112.583307
 30
0.0
 11
136.723961
 21
118.368652
 31
0.0
  0
LINE
  5
4BF
100
AcDbEntity
  8
0
  6
Continuous
 62
     8
100
AcDbLine
 10
136.723961
 20
119.368564
 30
0.0
 11
136.723961
 21
120.368477
 31
0.0
  0
LINE
  5
4C0
100
AcDbEntity
  8
0
  6
Continuous
 62
     8
100
AcDbLine
 10
136.723961
 20
121.368389
 30
0.0
 11
136.723961
 21
127.153946
 31
0.0
  0
LINE
  5
4C1
100
AcDbEntity
  8
0
  6
Continuous
 62
     8
100
AcDbLine
 10
136.723961
 20
128.153859
 30
0.0
 11
136.723961
 21
129.153771
 31
0.0
  0
LINE
  5
4C2
100
AcDbEntity
  8
0
  6
Continuous
 62
     8
100
AcDbLine
 10
136.723961
 20
130.153684
 30
0.0
 11
136.723961
 21
135.939029
 31
0.0
  0
LINE
  5
4C3
100
AcDbEntity
  8
0
  6
Continuous
 62
     8
100
AcDbLine
 10
136.723961
 20
136.938941
 30
0.0
 11
136.723961
 21
137.939066
 31
0.0
  0
LINE
  5
4C4
100
AcDbEntity
  8
0
  6
Continuous
 62
     8
100
AcDbLine
 10
136.723961
 20
138.938978
 30
0.0
 11
136.723961
 21
144.724323
 31
0.0
  0
LINE
  5
4C5
100
AcDbEntity
  8
0
  6
Continuous
 62
     8
100
AcDbLine
 10
136.723961
 20
145.724236
 30
0.0
 11
136.723961
 21
146.724148
 31
0.0
  0
LINE
  5
4C6
100
AcDbEntity
  8
0
  6
Continuous
 62
     8
100
AcDbLine
 10
136.723961
 20
147.724061
 30
0.0
 11
136.723961
 21
153.509618
 31
0.0
  0
LINE
  5
4C7
100
AcDbEntity
  8
0
  6
Continuous
 62
     8
100
AcDbLine
 10
136.723961
 20
156.509355
 30
0.0
 11
136.723961
 21
161.30902
 31
0.0
  0
ENDBLK
  5
4C8
100
AcDbEntity
  8
0
100
AcDbBlockEnd
  0
BLOCK
  5
4CB
100
AcDbEntity
  8
0
100
AcDbBlockBegin
  2
*B46
 70
     0
 10
0.0
 20
0.0
 30
0.0
  3
*B46
  1

  0
LINE
  5
4CC
100
AcDbEntity
  8
0
  6
Continuous
 62
     8
100
AcDbLine
 10
210.723859
 20
165.00893
 30
0.0
 11
230.018113
 21
165.00893
 31
0.0
  0
ENDBLK
  5
4CD
100
AcDbEntity
  8
0
100
AcDbBlockEnd
  0
BLOCK
  5
4D0
100
AcDbEntity
  8
0
100
AcDbBlockBegin
  2
*B47
 70
     0
 10
0.0
 20
0.0
 30
0.0
  3
*B47
  1

  0
LINE
  5
4D1
100
AcDbEntity
  8
0
  6
Continuous
 62
     8
100
AcDbLine
 10
123.723824
 20
66.272722
 30
0.0
 11
123.723824
 21
70.272584
 31
0.0
  0
LINE
  5
4D2
100
AcDbEntity
  8
0
  6
Continuous
 62
     8
100
AcDbLine
 10
123.723824
 20
49.709693
 30
0.0
 11
123.723824
 21
53.309548
 31
0.0
  0
LINE
  5
4D3
100
AcDbEntity
  8
0
  6
Continuous
 62
     8
100
AcDbLine
 10
123.723824
 20
56.309285
 30
0.0
 11
123.723824
 21
66.272722
 31
0.0
  0
ENDBLK
  5
4D4
100
AcDbEntity
  8
0
100
AcDbBlockEnd
  0
BLOCK
  5
4D7
100
AcDbEntity
  8
0
100
AcDbBlockBegin
  2
*B48
 70
     0
 10
0.0
 20
0.0
 30
0.0
  3
*B48
  1

  0
LINE
  5
4D8
100
AcDbEntity
  8
0
  6
Continuous
 62
     8
100
AcDbLine
 10
47.223826
 20
173.008442
 30
0.0
 11
53.557242
 21
173.008442
 31
0.0
  0
LINE
  5
4D9
100
AcDbEntity
  8
0
  6
Continuous
 62
     8
100
AcDbLine
 10
54.557155
 20
173.008442
 30
0.0
 11
55.55728
 21
173.008442
 31
0.0
  0
LINE
  5
4DA
100
AcDbEntity
  8
0
  6
Continuous
 62
     8
100
AcDbLine
 10
56.557192
 20
173.008442
 30
0.0
 11
62.890609
 21
173.008442
 31
0.0
  0
LINE
  5
4DB
100
AcDbEntity
  8
0
  6
Continuous
 62
     8
100
AcDbLine
 10
63.890521
 20
173.008442
 30
0.0
 11
64.890646
 21
173.008442
 31
0.0
  0
LINE
  5
4DC
100
AcDbEntity
  8
0
  6
Continuous
 62
     8
100
AcDbLine
 10
65.890559
 20
173.008442
 30
0.0
 11
72.223975
 21
173.008442
 31
0.0
  0
ENDBLK
  5
4DD
100
AcDbEntity
  8
0
100
AcDbBlockEnd
  0
BLOCK
  5
4E0
100
AcDbEntity
  8
0
100
AcDbBlockBegin
  2
*B49
 70
     0
 10
0.0
 20
0.0
 30
0.0
  3
*B49
  1

  0
LINE
  5
4E1
100
AcDbEntity
  8
0
  6
Continuous
 62
     8
100
AcDbLine
 10
193.723859
 20
91.013068
 30
0.0
 11
193.723859
 21
104.012356
 31
0.0
  0
LINE
  5
4E2
100
AcDbEntity
  8
0
  6
Continuous
 62
     8
100
AcDbLine
 10
193.723859
 20
166.008842
 30
0.0
 11
193.723859
 21
182.007867
 31
0.0
  0
ENDBLK
  5
4E3
100
AcDbEntity
  8
0
100
AcDbBlockEnd
  0
BLOCK
  5
4E6
100
AcDbEntity
  8
0
100
AcDbBlockBegin
  2
*B50
 70
     0
 10
0.0
 20
0.0
 30
0.0
  3
*B50
  1

  0
LINE
  5
4E7
100
AcDbEntity
  8
0
  6
Continuous
 62
     8
100
AcDbLine
 10
210.723859
 20
105.012268
 30
0.0
 11
230.018113
 21
105.012268
 31
0.0
  0
ENDBLK
  5
4E8
100
AcDbEntity
  8
0
100
AcDbBlockEnd
  0
BLOCK
  5
4EB
100
AcDbEntity
  8
0
100
AcDbBlockBegin
  2
*B51
 70
     0
 10
0.0
 20
0.0
 30
0.0
  3
*B51
  1

  0
LINE
  5
4EC
100
AcDbEntity
  8
0
  6
Continuous
 62
     8
100
AcDbLine
 10
55.023866
 20
135.010493
 30
0.0
 11
60.290666
 21
135.010493
 31
0.0
  0
LINE
  5
4ED
100
AcDbEntity
  8
0
  6
Continuous
 62
     8
100
AcDbLine
 10
61.290579
 20
135.010493
 30
0.0
 11
62.290491
 21
135.010493
 31
0.0
  0
LINE
  5
4EE
100
AcDbEntity
  8
0
  6
Continuous
 62
     8
100
AcDbLine
 10
63.290616
 20
135.010493
 30
0.0
 11
68.557204
 21
135.010493
 31
0.0
  0
LINE
  5
4EF
100
AcDbEntity
  8
0
  6
Continuous
 62
     8
100
AcDbLine
 10
69.557329
 20
135.010493
 30
0.0
 11
70.557242
 21
135.010493
 31
0.0
  0
LINE
  5
4F0
100
AcDbEntity
  8
0
  6
Continuous
 62
     8
100
AcDbLine
 10
71.557154
 20
135.010493
 30
0.0
 11
76.823955
 21
135.010493
 31
0.0
  0
LINE
  5
4F1
100
AcDbEntity
  8
0
  6
Continuous
 62
     8
100
AcDbLine
 10
77.823868
 20
135.010493
 30
0.0
 11
78.823992
 21
135.010493
 31
0.0
  0
LINE
  5
4F2
100
AcDbEntity
  8
0
  6
Continuous
 62
     8
100
AcDbLine
 10
79.823905
 20
135.010493
 30
0.0
 11
85.090493
 21
135.010493
 31
0.0
  0
LINE
  5
4F3
100
AcDbEntity
  8
0
  6
Continuous
 62
     8
100
AcDbLine
 10
86.090618
 20
135.010493
 30
0.0
 11
87.090531
 21
135.010493
 31
0.0
  0
LINE
  5
4F4
100
AcDbEntity
  8
0
  6
Continuous
 62
     8
100
AcDbLine
 10
88.090656
 20
135.010493
 30
0.0
 11
93.357244
 21
135.010493
 31
0.0
  0
LINE
  5
4F5
100
AcDbEntity
  8
0
  6
Continuous
 62
     8
100
AcDbLine
 10
94.357156
 20
135.010493
 30
0.0
 11
95.357281
 21
135.010493
 31
0.0
  0
LINE
  5
4F6
100
AcDbEntity
  8
0
  6
Continuous
 62
     8
100
AcDbLine
 10
96.357194
 20
135.010493
 30
0.0
 11
101.623994
 21
135.010493
 31
0.0
  0
LINE
  5
4F7
100
AcDbEntity
  8
0
  6
Continuous
 62
     8
100
AcDbLine
 10
102.623907
 20
135.010493
 30
0.0
 11
103.623819
 21
135.010493
 31
0.0
  0
LINE
  5
4F8
100
AcDbEntity
  8
0
  6
Continuous
 62
     8
100
AcDbLine
 10
104.623944
 20
135.010493
 30
0.0
 11
109.890532
 21
135.010493
 31
0.0
  0
LINE
  5
4F9
100
AcDbEntity
  8
0
  6
Continuous
 62
     8
100
AcDbLine
 10
110.890657
 20
135.010493
 30
0.0
 11
111.89057
 21
135.010493
 31
0.0
  0
LINE
  5
4FA
100
AcDbEntity
  8
0
  6
Continuous
 62
     8
100
AcDbLine
 10
112.890482
 20
135.010493
 30
0.0
 11
118.157283
 21
135.010493
 31
0.0
  0
LINE
  5
4FB
100
AcDbEntity
  8
0
  6
Continuous
 62
     8
100
AcDbLine
 10
119.157196
 20
135.010493
 30
0.0
 11
120.15732
 21
135.010493
 31
0.0
  0
LINE
  5
4FC
100
AcDbEntity
  8
0
  6
Continuous
 62
     8
100
AcDbLine
 10
121.157233
 20
135.010493
 30
0.0
 11
126.423821
 21
135.010493
 31
0.0
  0
LINE
  5
4FD
100
AcDbEntity
  8
0
  6
Continuous
 62
     8
100
AcDbLine
 10
127.423946
 20
135.010493
 30
0.0
 11
128.423859
 21
135.010493
 31
0.0
  0
LINE
  5
4FE
100
AcDbEntity
  8
0
  6
Continuous
 62
     8
100
AcDbLine
 10
129.423771
 20
135.010493
 30
0.0
 11
134.690572
 21
135.010493
 31
0.0
  0
LINE
  5
4FF
100
AcDbEntity
  8
0
  6
Continuous
 62
     8
100
AcDbLine
 10
135.690484
 20
135.010493
 30
0.0
 11
136.690609
 21
135.010493
 31
0.0
  0
LINE
  5
500
100
AcDbEntity
  8
0
  6
Continuous
 62
     8
100
AcDbLine
 10
137.690522
 20
135.010493
 30
0.0
 11
142.95711
 21
135.010493
 31
0.0
  0
LINE
  5
501
100
AcDbEntity
  8
0
  6
Continuous
 62
     8
100
AcDbLine
 10
143.957235
 20
135.010493
 30
0.0
 11
144.957147
 21
135.010493
 31
0.0
  0
LINE
  5
502
100
AcDbEntity
  8
0
  6
Continuous
 62
     8
100
AcDbLine
 10
145.957272
 20
135.010493
 30
0.0
 11
151.223861
 21
135.010493
 31
0.0
  0
LINE
  5
503
100
AcDbEntity
  8
0
  6
Continuous
 62
     8
100
AcDbLine
 10
152.223773
 20
135.010493
 30
0.0
 11
153.223898
 21
135.010493
 31
0.0
  0
LINE
  5
504
100
AcDbEntity
  8
0
  6
Continuous
 62
     8
100
AcDbLine
 10
154.22381
 20
135.010493
 30
0.0
 11
159.490611
 21
135.010493
 31
0.0
  0
LINE
  5
505
100
AcDbEntity
  8
0
  6
Continuous
 62
     8
100
AcDbLine
 10
160.490524
 20
135.010493
 30
0.0
 11
161.490436
 21
135.010493
 31
0.0
  0
LINE
  5
506
100
AcDbEntity
  8
0
  6
Continuous
 62
     8
100
AcDbLine
 10
162.490561
 20
135.010493
 30
0.0
 11
167.757149
 21
135.010493
 31
0.0
  0
LINE
  5
507
100
AcDbEntity
  8
0
  6
Continuous
 62
     8
100
AcDbLine
 10
168.757274
 20
135.010493
 30
0.0
 11
169.757187
 21
135.010493
 31
0.0
  0
LINE
  5
508
100
AcDbEntity
  8
0
  6
Continuous
 62
     8
100
AcDbLine
 10
170.757099
 20
135.010493
 30
0.0
 11
176.0239
 21
135.010493
 31
0.0
  0
LINE
  5
509
100
AcDbEntity
  8
0
  6
Continuous
 62
     8
100
AcDbLine
 10
177.023812
 20
135.010493
 30
0.0
 11
178.023937
 21
135.010493
 31
0.0
  0
LINE
  5
50A
100
AcDbEntity
  8
0
  6
Continuous
 62
     8
100
AcDbLine
 10
179.02385
 20
135.010493
 30
0.0
 11
184.290438
 21
135.010493
 31
0.0
  0
LINE
  5
50B
100
AcDbEntity
  8
0
  6
Continuous
 62
     8
100
AcDbLine
 10
185.290563
 20
135.010493
 30
0.0
 11
186.290475
 21
135.010493
 31
0.0
  0
LINE
  5
50C
100
AcDbEntity
  8
0
  6
Continuous
 62
     8
100
AcDbLine
 10
187.2906
 20
135.010493
 30
0.0
 11
192.557189
 21
135.010493
 31
0.0
  0
LINE
  5
50D
100
AcDbEntity
  8
0
  6
Continuous
 62
     8
100
AcDbLine
 10
193.557101
 20
135.010493
 30
0.0
 11
194.557226
 21
135.010493
 31
0.0
  0
LINE
  5
50E
100
AcDbEntity
  8
0
  6
Continuous
 62
     8
100
AcDbLine
 10
195.557138
 20
135.010493
 30
0.0
 11
200.823727
 21
135.010493
 31
0.0
  0
LINE
  5
50F
100
AcDbEntity
  8
0
  6
Continuous
 62
     8
100
AcDbLine
 10
201.823852
 20
135.010493
 30
0.0
 11
202.823764
 21
135.010493
 31
0.0
  0
LINE
  5
510
100
AcDbEntity
  8
0
  6
Continuous
 62
     8
100
AcDbLine
 10
203.823889
 20
135.010493
 30
0.0
 11
209.090477
 21
135.010493
 31
0.0
  0
LINE
  5
511
100
AcDbEntity
  8
0
  6
Continuous
 62
     8
100
AcDbLine
 10
210.090602
 20
135.010493
 30
0.0
 11
211.090515
 21
135.010493
 31
0.0
  0
LINE
  5
512
100
AcDbEntity
  8
0
  6
Continuous
 62
     8
100
AcDbLine
 10
212.090427
 20
135.010493
 30
0.0
 11
217.357228
 21
135.010493
 31
0.0
  0
LINE
  5
513
100
AcDbEntity
  8
0
  6
Continuous
 62
     8
100
AcDbLine
 10
218.35714
 20
135.010493
 30
0.0
 11
219.357265
 21
135.010493
 31
0.0
  0
LINE
  5
514
100
AcDbEntity
  8
0
  6
Continuous
 62
     8
100
AcDbLine
 10
220.357178
 20
135.010493
 30
0.0
 11
225.623766
 21
135.010493
 31
0.0
  0
LINE
  5
515
100
AcDbEntity
  8
0
  6
Continuous
 62
     8
100
AcDbLine
 10
226.623891
 20
135.010493
 30
0.0
 11
227.623803
 21
135.010493
 31
0.0
  0
LINE
  5
516
100
AcDbEntity
  8
0
  6
Continuous
 62
     8
100
AcDbLine
 10
228.623928
 20
135.010493
 30
0.0
 11
233.890517
 21
135.010493
 31
0.0
  0
LINE
  5
517
100
AcDbEntity
  8
0
  6
Continuous
 62
     8
100
AcDbLine
 10
234.890429
 20
135.010493
 30
0.0
 11
235.890554
 21
135.010493
 31
0.0
  0
LINE
  5
518
100
AcDbEntity
  8
0
  6
Continuous
 62
     8
100
AcDbLine
 10
236.890466
 20
135.010493
 30
0.0
 11
242.157055
 21
135.010493
 31
0.0
  0
LINE
  5
519
100
AcDbEntity
  8
0
  6
Continuous
 62
     8
100
AcDbLine
 10
243.15718
 20
135.010493
 30
0.0
 11
244.157092
 21
135.010493
 31
0.0
  0
LINE
  5
51A
100
AcDbEntity
  8
0
  6
Continuous
 62
     8
100
AcDbLine
 10
245.157217
 20
135.010493
 30
0.0
 11
250.423805
 21
135.010493
 31
0.0
  0
ENDBLK
  5
51B
100
AcDbEntity
  8
0
100
AcDbBlockEnd
  0
BLOCK
  5
51E
100
AcDbEntity
  8
0
100
AcDbBlockBegin
  2
*B52
 70
     0
 10
0.0
 20
0.0
 30
0.0
  3
*B52
  1

  0
LINE
  5
51F
100
AcDbEntity
  8
0
  6
Continuous
 62
     8
100
AcDbLine
 10
233.223908
 20
173.008442
 30
0.0
 11
239.223808
 21
173.008442
 31
0.0
  0
LINE
  5
520
100
AcDbEntity
  8
0
  6
Continuous
 62
     8
100
AcDbLine
 10
240.223721
 20
173.008442
 30
0.0
 11
241.223845
 21
173.008442
 31
0.0
  0
LINE
  5
521
100
AcDbEntity
  8
0
  6
Continuous
 62
     8
100
AcDbLine
 10
242.223758
 20
173.008442
 30
0.0
 11
248.22387
 21
173.008442
 31
0.0
  0
LINE
  5
522
100
AcDbEntity
  8
0
  6
Continuous
 62
     8
100
AcDbLine
 10
249.223783
 20
173.008442
 30
0.0
 11
250.223908
 21
173.008442
 31
0.0
  0
LINE
  5
523
100
AcDbEntity
  8
0
  6
Continuous
 62
     8
100
AcDbLine
 10
251.22382
 20
173.008442
 30
0.0
 11
257.223933
 21
173.008442
 31
0.0
  0
ENDBLK
  5
524
100
AcDbEntity
  8
0
100
AcDbBlockEnd
  0
BLOCK
  5
527
100
AcDbEntity
  8
0
100
AcDbBlockBegin
  2
*B53
 70
     0
 10
0.0
 20
0.0
 30
0.0
  3
*B53
  1

  0
LINE
  5
528
100
AcDbEntity
  8
0
  6
Continuous
 62
     8
100
AcDbLine
 10
95.723937
 20
78.013781
 30
0.0
 11
95.723937
 21
104.012356
 31
0.0
  0
LINE
  5
529
100
AcDbEntity
  8
0
  6
Continuous
 62
     8
100
AcDbLine
 10
95.723937
 20
166.008842
 30
0.0
 11
95.723937
 21
194.007242
 31
0.0
  0
ENDBLK
  5
52A
100
AcDbEntity
  8
0
100
AcDbBlockEnd
  0
BLOCK
  5
52D
100
AcDbEntity
  8
0
100
AcDbBlockBegin
  2
*B54
 70
     0
 10
0.0
 20
0.0
 30
0.0
  3
*B54
  1

  0
LINE
  5
52E
100
AcDbEntity
  8
0
  6
Continuous
 62
     8
100
AcDbLine
 10
130.423896
 20
155.00938
 30
0.0
 11
135.223773
 21
155.00938
 31
0.0
  0
LINE
  5
52F
100
AcDbEntity
  8
0
  6
Continuous
 62
     8
100
AcDbLine
 10
138.223936
 20
155.00938
 30
0.0
 11
143.023813
 21
155.00938
 31
0.0
  0
ENDBLK
  5
530
100
AcDbEntity
  8
0
100
AcDbBlockEnd
  0
BLOCK
  5
533
100
AcDbEntity
  8
0
100
AcDbBlockBegin
  2
*B55
 70
     0
 10
0.0
 20
0.0
 30
0.0
  3
*B55
  1

  0
LINE
  5
534
100
AcDbEntity
  8
0
  6
Continuous
 62
     8
100
AcDbLine
 10
202.018013
 20
155.00938
 30
0.0
 11
206.018088
 21
155.00938
 31
0.0
  0
LINE
  5
535
100
AcDbEntity
  8
0
  6
Continuous
 62
     8
100
AcDbLine
 10
162.423858
 20
155.00938
 30
0.0
 11
167.223948
 21
155.00938
 31
0.0
  0
LINE
  5
536
100
AcDbEntity
  8
0
  6
Continuous
 62
     8
100
AcDbLine
 10
170.223897
 20
155.00938
 30
0.0
 11
175.922358
 21
155.00938
 31
0.0
  0
LINE
  5
537
100
AcDbEntity
  8
0
  6
Continuous
 62
     8
100
AcDbLine
 10
176.922483
 20
155.00938
 30
0.0
 11
177.922395
 21
155.00938
 31
0.0
  0
LINE
  5
538
100
AcDbEntity
  8
0
  6
Continuous
 62
     8
100
AcDbLine
 10
178.92252
 20
155.00938
 30
0.0
 11
184.620981
 21
155.00938
 31
0.0
  0
LINE
  5
539
100
AcDbEntity
  8
0
  6
Continuous
 62
     8
100
AcDbLine
 10
185.620893
 20
155.00938
 30
0.0
 11
186.621018
 21
155.00938
 31
0.0
  0
LINE
  5
53A
100
AcDbEntity
  8
0
  6
Continuous
 62
     8
100
AcDbLine
 10
187.62093
 20
155.00938
 30
0.0
 11
193.319603
 21
155.00938
 31
0.0
  0
LINE
  5
53B
100
AcDbEntity
  8
0
  6
Continuous
 62
     8
100
AcDbLine
 10
194.319516
 20
155.00938
 30
0.0
 11
195.319641
 21
155.00938
 31
0.0
  0
LINE
  5
53C
100
AcDbEntity
  8
0
  6
Continuous
 62
     8
100
AcDbLine
 10
196.319553
 20
155.00938
 30
0.0
 11
202.018013
 21
155.00938
 31
0.0
  0
ENDBLK
  5
53D
100
AcDbEntity
  8
0
100
AcDbBlockEnd
  0
BLOCK
  5
540
100
AcDbEntity
  8
0
100
AcDbBlockBegin
  2
*B56
 70
     0
 10
0.0
 20
0.0
 30
0.0
  3
*B56
  1

  0
LINE
  5
541
100
AcDbEntity
  8
0
  6
Continuous
 62
     8
100
AcDbLine
 10
193.723859
 20
60.808998
 30
0.0
 11
193.723859
 21
70.272584
 31
0.0
  0
ENDBLK
  5
542
100
AcDbEntity
  8
0
100
AcDbBlockEnd
  0
BLOCK
  5
545
100
AcDbEntity
  8
0
100
AcDbBlockBegin
  2
*B57
 70
     0
 10
0.0
 20
0.0
 30
0.0
  3
*B57
  1

  0
LINE
  5
546
100
AcDbEntity
  8
0
  6
Continuous
 62
     8
100
AcDbLine
 10
152.723835
 20
32.410591
 30
0.0
 11
152.723835
 21
43.309998
 31
0.0
  0
LINE
  5
547
100
AcDbEntity
  8
0
  6
Continuous
 62
     8
100
AcDbLine
 10
152.723835
 20
46.309736
 30
0.0
 11
152.723835
 21
57.209143
 31
0.0
  0
ENDBLK
  5
548
100
AcDbEntity
  8
0
100
AcDbBlockEnd
  0
BLOCK
  5
54B
100
AcDbEntity
  8
0
100
AcDbBlockBegin
  2
*B58
 70
     0
 10
0.0
 20
0.0
 30
0.0
  3
*B58
  1

  0
LINE
  5
54C
100
AcDbEntity
  8
0
  6
Continuous
 62
     8
100
AcDbLine
 10
31.018106
 20
29.810861
 30
0.0
 11
94.723812
 21
29.810861
 31
0.0
  0
ENDBLK
  5
54D
100
AcDbEntity
  8
0
100
AcDbBlockEnd
  0
BLOCK
  5
550
100
AcDbEntity
  8
0
100
AcDbBlockBegin
  2
*B59
 70
     0
 10
0.0
 20
0.0
 30
0.0
  3
*B59
  1

  0
LINE
  5
551
100
AcDbEntity
  8
0
  6
Continuous
 62
     6
100
AcDbLine
 10
46.223913
 20
173.008442
 30
0.0
 11
47.223826
 21
173.008442
 31
0.0
  0
LINE
  5
552
100
AcDbEntity
  8
0
  6
Continuous
 62
     6
100
AcDbLine
 10
46.723976
 20
172.50838
 30
0.0
 11
46.723976
 21
173.508292
 31
0.0
  0
ENDBLK
  5
553
100
AcDbEntity
  8
0
100
AcDbBlockEnd
  0
BLOCK
  5
556
100
AcDbEntity
  8
0
100
AcDbBlockBegin
  2
*B60
 70
     0
 10
0.0
 20
0.0
 30
0.0
  3
*B60
  1

  0
LINE
  5
557
100
AcDbEntity
  8
0
  6
Continuous
 62
     6
100
AcDbLine
 10
258.223845
 20
173.008442
 30
0.0
 11
259.223758
 21
173.008442
 31
0.0
  0
LINE
  5
558
100
AcDbEntity
  8
0
  6
Continuous
 62
     6
100
AcDbLine
 10
258.723907
 20
172.50838
 30
0.0
 11
258.723907
 21
173.508292
 31
0.0
  0
ENDBLK
  5
559
100
AcDbEntity
  8
0
100
AcDbBlockEnd
  0
BLOCK
  5
55C
100
AcDbEntity
  8
0
100
AcDbBlockBegin
  2
*B61
 70
     0
 10
0.0
 20
0.0
 30
0.0
  3
*B61
  1

  0
LINE
  5
55D
100
AcDbEntity
  8
0
  6
Continuous
 62
     6
100
AcDbLine
 10
198.723847
 20
44.309911
 30
0.0
 11
198.723847
 21
45.309823
 31
0.0
  0
LINE
  5
55E
100
AcDbEntity
  8
0
  6
Continuous
 62
     6
100
AcDbLine
 10
198.223784
 20
44.809973
 30
0.0
 11
199.223909
 21
44.809973
 31
0.0
  0
ENDBLK
  5
55F
100
AcDbEntity
  8
0
100
AcDbBlockEnd
  0
BLOCK
  5
562
100
AcDbEntity
  8
0
100
AcDbBlockBegin
  2
*B62
 70
     0
 10
0.0
 20
0.0
 30
0.0
  3
*B62
  1

  0
LINE
  5
563
100
AcDbEntity
  8
0
  6
Continuous
 62
     6
100
AcDbLine
 10
136.223898
 20
155.00938
 30
0.0
 11
137.223811
 21
155.00938
 31
0.0
  0
LINE
  5
564
100
AcDbEntity
  8
0
  6
Continuous
 62
     6
100
AcDbLine
 10
136.723961
 20
154.50953
 30
0.0
 11
136.723961
 21
155.509443
 31
0.0
  0
ENDBLK
  5
565
100
AcDbEntity
  8
0
100
AcDbBlockEnd
  0
BLOCK
  5
568
100
AcDbEntity
  8
0
100
AcDbBlockBegin
  2
*B63
 70
     0
 10
0.0
 20
0.0
 30
0.0
  3
*B63
  1

  0
LINE
  5
569
100
AcDbEntity
  8
0
  6
Continuous
 62
     6
100
AcDbLine
 10
106.723824
 20
44.309911
 30
0.0
 11
106.723824
 21
45.309823
 31
0.0
  0
LINE
  5
56A
100
AcDbEntity
  8
0
  6
Continuous
 62
     6
100
AcDbLine
 10
106.223974
 20
44.809973
 30
0.0
 11
107.223887
 21
44.809973
 31
0.0
  0
ENDBLK
  5
56B
100
AcDbEntity
  8
0
100
AcDbBlockEnd
  0
BLOCK
  5
56E
100
AcDbEntity
  8
0
100
AcDbBlockBegin
  2
*B64
 70
     0
 10
0.0
 20
0.0
 30
0.0
  3
*B64
  1

  0
LINE
  5
56F
100
AcDbEntity
  8
0
  6
Continuous
 62
     6
100
AcDbLine
 10
168.723922
 20
154.50953
 30
0.0
 11
168.723922
 21
155.509443
 31
0.0
  0
LINE
  5
570
100
AcDbEntity
  8
0
  6
Continuous
 62
     6
100
AcDbLine
 10
168.22386
 20
155.00938
 30
0.0
 11
169.223773
 21
155.00938
 31
0.0
  0
ENDBLK
  5
571
100
AcDbEntity
  8
0
100
AcDbBlockEnd
  0
BLOCK
  5
574
100
AcDbEntity
  8
0
100
AcDbBlockBegin
  2
*B65
 70
     0
 10
0.0
 20
0.0
 30
0.0
  3
*B65
  1

  0
LINE
  5
575
100
AcDbEntity
  8
0
  6
Continuous
 62
     6
100
AcDbLine
 10
152.223773
 20
44.809973
 30
0.0
 11
153.223898
 21
44.809973
 31
0.0
  0
LINE
  5
576
100
AcDbEntity
  8
0
  6
Continuous
 62
     6
100
AcDbLine
 10
152.723835
 20
44.309911
 30
0.0
 11
152.723835
 21
45.309823
 31
0.0
  0
ENDBLK
  5
577
100
AcDbEntity
  8
0
100
AcDbBlockEnd
  0
BLOCK
  5
57A
100
AcDbEntity
  8
0
100
AcDbBlockBegin
  2
*B66
 70
     0
 10
0.0
 20
0.0
 30
0.0
  3
*B66
  1

  0
LINE
  5
57B
100
AcDbEntity
  8
0
  6
Continuous
 62
     6
100
AcDbLine
 10
181.723847
 20
34.310573
 30
0.0
 11
181.723847
 21
35.310486
 31
0.0
  0
LINE
  5
57C
100
AcDbEntity
  8
0
  6
Continuous
 62
     6
100
AcDbLine
 10
181.223785
 20
34.810423
 30
0.0
 11
182.22391
 21
34.810423
 31
0.0
  0
ENDBLK
  5
57D
100
AcDbEntity
  8
0
100
AcDbBlockEnd
  0
BLOCK
  5
580
100
AcDbEntity
  8
0
100
AcDbBlockBegin
  2
*B67
 70
     0
 10
0.0
 20
0.0
 30
0.0
  3
*B67
  1

  0
LINE
  5
581
100
AcDbEntity
  8
0
  6
Continuous
 62
     6
100
AcDbLine
 10
123.223974
 20
54.80931
 30
0.0
 11
124.223886
 21
54.80931
 31
0.0
  0
LINE
  5
582
100
AcDbEntity
  8
0
  6
Continuous
 62
     6
100
AcDbLine
 10
123.723824
 20
54.30946
 30
0.0
 11
123.723824
 21
55.309373
 31
0.0
  0
ENDBLK
  5
583
100
AcDbEntity
  8
0
100
AcDbBlockEnd
  0
BLOCK
  5
586
100
AcDbEntity
  8
0
100
AcDbBlockBegin
  2
*B68
 70
     0
 10
0.0
 20
0.0
 30
0.0
  3
*B68
  1

  0
LINE
  5
587
100
AcDbEntity
  8
0
  6
Continuous
 62
     6
100
AcDbLine
 10
152.223773
 20
115.011606
 30
0.0
 11
153.223898
 21
115.011606
 31
0.0
  0
LINE
  5
588
100
AcDbEntity
  8
0
  6
Continuous
 62
     6
100
AcDbLine
 10
152.723835
 20
114.511755
 30
0.0
 11
152.723835
 21
115.511668
 31
0.0
  0
ENDBLK
  5
589
100
AcDbEntity
  8
0
100
AcDbBlockEnd
  0
BLOCK
  5
58C
100
AcDbEntity
  8
0
100
AcDbBlockBegin
  2
*B69
 70
     0
 10
0.0
 20
0.0
 30
0.0
  3
*B69
  1

  0
LINE
  5
58D
100
AcDbEntity
  8
0
  6
Continuous
 62
     0
100
AcDbLine
 10
114.509206
 20
180.258074
 30
0.0
 11
128.852119
 21
180.258074
 31
0.0
  0
LINE
  5
58E
100
AcDbEntity
  8
0
  6
Continuous
 62
     0
100
AcDbLine
 10
128.852119
 20
180.258074
 30
0.0
 11
135.74168
 21
158.159731
 31
0.0
  0
SOLID
  5
58F
100
AcDbEntity
  8
0
  6
Continuous
 62
     0
100
AcDbTrace
 10
134.127205
 20
161.322403
 30
0.0
 11
135.74168
 21
158.159731
 31
0.0
 12
135.272845
 22
161.6795
 32
0.0
 13
135.272845
 23
161.6795
 33
0.0
  0
ENDBLK
  5
590
100
AcDbEntity
  8
0
100
AcDbBlockEnd
  0
BLOCK
  5
593
100
AcDbEntity
  8
0
100
AcDbBlockBegin
  2
*B70
 70
     0
 10
0.0
 20
0.0
 30
0.0
  3
*B70
  1

  0
TEXT
  5
594
100
AcDbEntity
  8
TEXT
  6
Continuous
 62
     0
100
AcDbText
 10
134.8829
 20
109.0
 30
0.0
 40
6.0
  1
3
100
AcDbText
  0
ENDBLK
  5
595
100
AcDbEntity
  8
0
100
AcDbBlockEnd
  0
BLOCK
  5
598
100
AcDbEntity
  8
0
100
AcDbBlockBegin
  2
*B71
 70
     0
 10
0.0
 20
0.0
 30
0.0
  3
*B71
  1

  0
TEXT
  5
599
100
AcDbEntity
  8
TEXT
  6
Continuous
 62
     0
100
AcDbText
 10
150.8829
 20
155.0
 30
0.0
 40
6.0
  1
2
100
AcDbText
  0
ENDBLK
  5
59A
100
AcDbEntity
  8
0
100
AcDbBlockEnd
  0
BLOCK
  5
59D
100
AcDbEntity
  8
0
100
AcDbBlockBegin
  2
*B72
 70
     0
 10
0.0
 20
0.0
 30
0.0
  3
*B72
  1

  0
TEXT
  5
59E
100
AcDbEntity
  8
TEXT
  6
Continuous
 62
     0
100
AcDbText
 10
165.8829
 20
109.0
 30
0.0
 40
6.0
  1
1
100
AcDbText
  0
ENDBLK
  5
59F
100
AcDbEntity
  8
0
100
AcDbBlockEnd
  0
BLOCK
  5
5A2
100
AcDbEntity
  8
0
100
AcDbBlockBegin
  2
*B73
 70
     0
 10
0.0
 20
0.0
 30
0.0
  3
*B73
  1

  0
TEXT
  5
5A3
100
AcDbEntity
  8
TEXT
  6
Continuous
 62
     0
100
AcDbText
 10
114.765799
 20
133.0
 30
0.0
 40
6.0
  1
10
100
AcDbText
  0
ENDBLK
  5
5A4
100
AcDbEntity
  8
0
100
AcDbBlockEnd
  0
BLOCK
  5
5A7
100
AcDbEntity
  8
0
100
AcDbBlockBegin
  2
*B74
 70
     0
 10
0.0
 20
0.0
 30
0.0
  3
*B74
  1

  0
TEXT
  5
5A8
100
AcDbEntity
  8
TEXT
  6
Continuous
 62
     0
100
AcDbText
 10
180.765799
 20
133.0
 30
0.0
 40
6.0
  1
12
100
AcDbText
  0
ENDBLK
  5
5A9
100
AcDbEntity
  8
0
100
AcDbBlockEnd
  0
BLOCK
  5
5AC
100
AcDbEntity
  8
0
100
AcDbBlockBegin
  2
*B75
 70
     0
 10
0.0
 20
0.0
 30
0.0
  3
*B75
  1

  0
TEXT
  5
5AD
100
AcDbEntity
  8
TEXT
  6
Continuous
 62
     0
100
AcDbText
 10
102.1
 20
43.54145
 30
0.0
 40
3.0
  1
1
 50
90.0
100
AcDbText
  0
ENDBLK
  5
5AE
100
AcDbEntity
  8
0
100
AcDbBlockEnd
  0
BLOCK
  5
5B1
100
AcDbEntity
  8
0
100
AcDbBlockBegin
  2
*B76
 70
     0
 10
0.0
 20
0.0
 30
0.0
  3
*B76
  1

  0
TEXT
  5
5B2
100
AcDbEntity
  8
TEXT
  6
Continuous
 62
     0
100
AcDbText
 10
108.1
 20
37.54145
 30
0.0
 40
3.0
  1
0
 50
90.0
100
AcDbText
  0
ENDBLK
  5
5B3
100
AcDbEntity
  8
0
100
AcDbBlockEnd
  0
BLOCK
  5
5B6
100
AcDbEntity
  8
0
100
AcDbBlockBegin
  2
*B77
 70
     0
 10
0.0
 20
0.0
 30
0.0
  3
*B77
  1

  0
TEXT
  5
5B7
100
AcDbEntity
  8
TEXT
  6
Continuous
 62
     0
100
AcDbText
 10
203.0
 20
46.25855
 30
0.0
 40
3.0
  1
1
 50
-90.0
100
AcDbText
  0
ENDBLK
  5
5B8
100
AcDbEntity
  8
0
100
AcDbBlockEnd
  0
BLOCK
  5
5BB
100
AcDbEntity
  8
0
100
AcDbBlockBegin
  2
*B78
 70
     0
 10
0.0
 20
0.0
 30
0.0
  3
*B78
  1

  0
TEXT
  5
5BC
100
AcDbEntity
  8
TEXT
  6
Continuous
 62
     0
100
AcDbText
 10
197.0
 20
51.75855
 30
0.0
 40
3.0
  1
0
 50
-90.0
100
AcDbText
  0
ENDBLK
  5
5BD
100
AcDbEntity
  8
0
100
AcDbBlockEnd
  0
BLOCK
  5
5C0
100
AcDbEntity
  8
0
100
AcDbBlockBegin
  2
*B79
 70
     0
 10
0.0
 20
0.0
 30
0.0
  3
*B79
  1

  0
TEXT
  5
5C1
100
AcDbEntity
  8
TEXT
  6
Continuous
 62
     0
100
AcDbText
 10
114.491071
 20
182.5
 30
0.0
 40
3.0
  1
%%c6,6
100
AcDbText
  0
ENDBLK
  5
5C2
100
AcDbEntity
  8
0
100
AcDbBlockEnd
  0
BLOCK
  5
5C5
100
AcDbEntity
  8
0
100
AcDbBlockBegin
  2
*B80
 70
     0
 10
0.0
 20
0.0
 30
0.0
  3
*B80
  1

  0
TEXT
  5
5C6
100
AcDbEntity
  8
TEXT
  6
Continuous
 62
     0
100
AcDbText
 10
121.785714
 20
16.758373
 30
0.0
 40
3.0
  1
G 1/2"
100
AcDbText
  0
ENDBLK
  5
5C7
100
AcDbEntity
  8
0
100
AcDbBlockEnd
  0
BLOCK
  5
5CA
100
AcDbEntity
  8
0
100
AcDbBlockBegin
  2
*B81
 70
     0
 10
0.0
 20
0.0
 30
0.0
  3
*B81
  1

  0
TEXT
  5
5CB
100
AcDbEntity
  8
TEXT
  6
Continuous
 62
     0
100
AcDbText
 10
189.857143
 20
16.758373
 30
0.0
 40
3.0
  1
M5
100
AcDbText
  0
ENDBLK
  5
5CC
100
AcDbEntity
  8
0
100
AcDbBlockEnd
  0
BLOCK
  5
5CF
100
AcDbEntity
  8
0
100
AcDbBlockBegin
  2
*B82
 70
     0
 10
0.0
 20
0.0
 30
0.0
  3
*B82
  1

  0
TEXT
  5
5D0
100
AcDbEntity
  8
TEXT
  6
Continuous
 62
     0
100
AcDbText
 10
149.848599
 20
69.758373
 30
0.0
 40
3.0
  1
58
100
AcDbText
  0
ENDBLK
  5
5D1
100
AcDbEntity
  8
0
100
AcDbBlockEnd
  0
BLOCK
  5
5D4
100
AcDbEntity
  8
0
100
AcDbBlockBegin
  2
*B83
 70
     0
 10
0.0
 20
0.0
 30
0.0
  3
*B83
  1

  0
TEXT
  5
5D5
100
AcDbEntity
  8
TEXT
  6
Continuous
 62
     0
100
AcDbText
 10
184.848599
 20
69.758373
 30
0.0
 40
3.0
  1
12
100
AcDbText
  0
ENDBLK
  5
5D6
100
AcDbEntity
  8
0
100
AcDbBlockEnd
  0
BLOCK
  5
5D9
100
AcDbEntity
  8
0
100
AcDbBlockBegin
  2
*B84
 70
     0
 10
0.0
 20
0.0
 30
0.0
  3
*B84
  1

  0
TEXT
  5
5DA
100
AcDbEntity
  8
TEXT
  6
Continuous
 62
     0
100
AcDbText
 10
114.848599
 20
69.758373
 30
0.0
 40
3.0
  1
12
100
AcDbText
  0
ENDBLK
  5
5DB
100
AcDbEntity
  8
0
100
AcDbBlockEnd
  0
BLOCK
  5
5DE
100
AcDbEntity
  8
0
100
AcDbBlockBegin
  2
*B85
 70
     0
 10
0.0
 20
0.0
 30
0.0
  3
*B85
  1

  0
TEXT
  5
5DF
100
AcDbEntity
  8
TEXT
  6
Continuous
 62
     0
100
AcDbText
 10
170.348599
 20
181.5
 30
0.0
 40
3.0
  1
41
100
AcDbText
  0
ENDBLK
  5
5E0
100
AcDbEntity
  8
0
100
AcDbBlockEnd
  0
BLOCK
  5
5E3
100
AcDbEntity
  8
0
100
AcDbBlockBegin
  2
*B86
 70
     0
 10
0.0
 20
0.0
 30
0.0
  3
*B86
  1

  0
TEXT
  5
5E4
100
AcDbEntity
  8
TEXT
  6
Continuous
 62
     0
100
AcDbText
 10
178.348599
 20
94.5
 30
0.0
 40
3.0
  1
25
100
AcDbText
  0
ENDBLK
  5
5E5
100
AcDbEntity
  8
0
100
AcDbBlockEnd
  0
BLOCK
  5
5E8
100
AcDbEntity
  8
0
100
AcDbBlockBegin
  2
*B87
 70
     0
 10
0.0
 20
0.0
 30
0.0
  3
*B87
  1

  0
TEXT
  5
5E9
100
AcDbEntity
  8
TEXT
  6
Continuous
 62
     0
100
AcDbText
 10
149.848599
 20
94.5
 30
0.0
 40
3.0
  1
32
100
AcDbText
  0
ENDBLK
  5
5EA
100
AcDbEntity
  8
0
100
AcDbBlockEnd
  0
BLOCK
  5
5ED
100
AcDbEntity
  8
0
100
AcDbBlockBegin
  2
*B88
 70
     0
 10
0.0
 20
0.0
 30
0.0
  3
*B88
  1

  0
TEXT
  5
5EE
100
AcDbEntity
  8
TEXT
  6
Continuous
 62
     0
100
AcDbText
 10
121.348599
 20
94.5
 30
0.0
 40
3.0
  1
25
100
AcDbText
  0
ENDBLK
  5
5EF
100
AcDbEntity
  8
0
100
AcDbBlockEnd
  0
BLOCK
  5
5F2
100
AcDbEntity
  8
0
100
AcDbBlockBegin
  2
*B89
 70
     0
 10
0.0
 20
0.0
 30
0.0
  3
*B89
  1

  0
TEXT
  5
5F3
100
AcDbEntity
  8
TEXT
  6
Continuous
 62
     0
100
AcDbText
 10
148.420027
 20
81.5
 30
0.0
 40
3.0
  1
114
100
AcDbText
  0
ENDBLK
  5
5F4
100
AcDbEntity
  8
0
100
AcDbBlockEnd
  0
BLOCK
  5
5F7
100
AcDbEntity
  8
0
100
AcDbBlockBegin
  2
*B90
 70
     0
 10
0.0
 20
0.0
 30
0.0
  3
*B90
  1

  0
TEXT
  5
5F8
100
AcDbEntity
  8
TEXT
  6
Continuous
 62
     0
100
AcDbText
 10
32.5
 20
140.642632
 30
0.0
 40
3.0
  1
77
 50
90.0
100
AcDbText
  0
ENDBLK
  5
5F9
100
AcDbEntity
  8
0
100
AcDbBlockEnd
  0
BLOCK
  5
5FC
100
AcDbEntity
  8
0
100
AcDbBlockBegin
  2
*B91
 70
     0
 10
0.0
 20
0.0
 30
0.0
  3
*B91
  1

  0
TEXT
  5
5FD
100
AcDbEntity
  8
TEXT
  6
Continuous
 62
     0
100
AcDbText
 10
68.348599
 20
193.5
 30
0.0
 40
3.0
  1
48
100
AcDbText
  0
ENDBLK
  5
5FE
100
AcDbEntity
  8
0
100
AcDbBlockEnd
  0
BLOCK
  5
601
100
AcDbEntity
  8
0
100
AcDbBlockBegin
  2
*B92
 70
     0
 10
0.0
 20
0.0
 30
0.0
  3
*B92
  1

  0
TEXT
  5
602
100
AcDbEntity
  8
TEXT
  6
Continuous
 62
     0
100
AcDbText
 10
231.348599
 20
192.5
 30
0.0
 40
3.0
  1
48
100
AcDbText
  0
ENDBLK
  5
603
100
AcDbEntity
  8
0
100
AcDbBlockEnd
  0
BLOCK
  5
606
100
AcDbEntity
  8
0
100
AcDbBlockBegin
  2
*B93
 70
     0
 10
0.0
 20
0.0
 30
0.0
  3
*B93
  1

  0
TEXT
  5
607
100
AcDbEntity
  8
TEXT
  6
Continuous
 62
     0
100
AcDbText
 10
202.5
 20
132.142857
 30
0.0
 40
3.0
  1
40
 50
90.0
100
AcDbText
  0
ENDBLK
  5
608
100
AcDbEntity
  8
0
100
AcDbBlockEnd
  0
BLOCK
  5
60B
100
AcDbEntity
  8
0
100
AcDbBlockBegin
  2
*B94
 70
     0
 10
0.0
 20
0.0
 30
0.0
  3
*B94
  1

  0
TEXT
  5
60C
100
AcDbEntity
  8
TEXT
  6
Continuous
 62
     0
100
AcDbText
 10
31.5
 20
41.937114
 30
0.0
 40
3.0
  1
30
 50
90.0
100
AcDbText
  0
ENDBLK
  5
60D
100
AcDbEntity
  8
0
100
AcDbBlockEnd
  0
BLOCK
  5
610
100
AcDbEntity
  8
0
100
AcDbBlockBegin
  2
*B95
 70
     0
 10
0.0
 20
0.0
 30
0.0
  3
*B95
  1

  0
TEXT
  5
611
100
AcDbEntity
  8
TEXT
  6
Continuous
 62
     0
100
AcDbText
 10
226.5
 20
132.142857
 30
0.0
 40
3.0
  1
60
 50
90.0
100
AcDbText
  0
ENDBLK
  5
612
100
AcDbEntity
  8
0
100
AcDbBlockEnd
  0
ENDSEC
  0
SECTION
  2
ENTITIES
  0
INSERT
  5
31
100
AcDbEntity
  8
0
  6
Continuous
 62
   172
100
AcDbBlockReference
  2
*B1
 10
0.0
 20
0.0
 30
0.0
  0
INSERT
  5
3C
100
AcDbEntity
  8
0
  6
Continuous
 62
   172
100
AcDbBlockReference
  2
*B2
 10
0.0
 20
0.0
 30
0.0
  0
INSERT
  5
1A0
100
AcDbEntity
  8
0
  6
HIDDEN
 62
   174
100
AcDbBlockReference
  2
*B4
 10
0.0
 20
0.0
 30
0.0
  0
INSERT
  5
36D
100
AcDbEntity
  8
0
  6
Continuous
 62
   174
100
AcDbBlockReference
  2
*B5
 10
0.0
 20
0.0
 30
0.0
  0
INSERT
  5
374
100
AcDbEntity
  8
0
  6
Continuous
 62
     0
100
AcDbBlockReference
  2
*B6
 10
0.0
 20
0.0
 30
0.0
  0
INSERT
  5
37B
100
AcDbEntity
  8
0
  6
Continuous
 62
     0
100
AcDbBlockReference
  2
*B7
 10
0.0
 20
0.0
 30
0.0
  0
INSERT
  5
382
100
AcDbEntity
  8
0
  6
Continuous
 62
     0
100
AcDbBlockReference
  2
*B8
 10
0.0
 20
0.0
 30
0.0
  0
INSERT
  5
389
100
AcDbEntity
  8
0
  6
Continuous
 62
     0
100
AcDbBlockReference
  2
*B9
 10
0.0
 20
0.0
 30
0.0
  0
INSERT
  5
390
100
AcDbEntity
  8
0
  6
Continuous
 62
     0
100
AcDbBlockReference
  2
*B10
 10
0.0
 20
0.0
 30
0.0
  0
INSERT
  5
397
100
AcDbEntity
  8
0
  6
Continuous
 62
     0
100
AcDbBlockReference
  2
*B11
 10
0.0
 20
0.0
 30
0.0
  0
INSERT
  5
39E
100
AcDbEntity
  8
0
  6
Continuous
 62
     0
100
AcDbBlockReference
  2
*B12
 10
0.0
 20
0.0
 30
0.0
  0
INSERT
  5
3A5
100
AcDbEntity
  8
0
  6
Continuous
 62
     0
100
AcDbBlockReference
  2
*B13
 10
0.0
 20
0.0
 30
0.0
  0
INSERT
  5
3AC
100
AcDbEntity
  8
0
  6
Continuous
 62
     0
100
AcDbBlockReference
  2
*B14
 10
0.0
 20
0.0
 30
0.0
  0
INSERT
  5
3B3
100
AcDbEntity
  8
0
  6
Continuous
 62
     0
100
AcDbBlockReference
  2
*B15
 10
0.0
 20
0.0
 30
0.0
  0
INSERT
  5
3BA
100
AcDbEntity
  8
0
  6
Continuous
 62
     0
100
AcDbBlockReference
  2
*B16
 10
0.0
 20
0.0
 30
0.0
  0
INSERT
  5
3C1
100
AcDbEntity
  8
0
  6
Continuous
 62
     0
100
AcDbBlockReference
  2
*B17
 10
0.0
 20
0.0
 30
0.0
  0
INSERT
  5
3C8
100
AcDbEntity
  8
0
  6
Continuous
 62
     0
100
AcDbBlockReference
  2
*B18
 10
0.0
 20
0.0
 30
0.0
  0
INSERT
  5
3CF
100
AcDbEntity
  8
0
  6
Continuous
 62
     0
100
AcDbBlockReference
  2
*B19
 10
0.0
 20
0.0
 30
0.0
  0
INSERT
  5
3D6
100
AcDbEntity
  8
0
  6
Continuous
 62
     0
100
AcDbBlockReference
  2
*B20
 10
0.0
 20
0.0
 30
0.0
  0
INSERT
  5
3DD
100
AcDbEntity
  8
0
  6
Continuous
 62
     0
100
AcDbBlockReference
  2
*B21
 10
0.0
 20
0.0
 30
0.0
  0
INSERT
  5
3E2
100
AcDbEntity
  8
0
  6
Continuous
 62
     8
100
AcDbBlockReference
  2
*B22
 10
0.0
 20
0.0
 30
0.0
  0
INSERT
  5
3E7
100
AcDbEntity
  8
0
  6
Continuous
 62
     8
100
AcDbBlockReference
  2
*B23
 10
0.0
 20
0.0
 30
0.0
  0
INSERT
  5
3EC
100
AcDbEntity
  8
0
  6
Continuous
 62
     8
100
AcDbBlockReference
  2
*B24
 10
0.0
 20
0.0
 30
0.0
  0
INSERT
  5
3F1
100
AcDbEntity
  8
0
  6
Continuous
 62
     8
100
AcDbBlockReference
  2
*B25
 10
0.0
 20
0.0
 30
0.0
  0
INSERT
  5
3FE
100
AcDbEntity
  8
0
  6
Continuous
 62
     8
100
AcDbBlockReference
  2
*B26
 10
0.0
 20
0.0
 30
0.0
  0
INSERT
  5
405
100
AcDbEntity
  8
0
  6
Continuous
 62
     8
100
AcDbBlockReference
  2
*B27
 10
0.0
 20
0.0
 30
0.0
  0
INSERT
  5
40A
100
AcDbEntity
  8
0
  6
Continuous
 62
     8
100
AcDbBlockReference
  2
*B28
 10
0.0
 20
0.0
 30
0.0
  0
INSERT
  5
410
100
AcDbEntity
  8
0
  6
Continuous
 62
     8
100
AcDbBlockReference
  2
*B29
 10
0.0
 20
0.0
 30
0.0
  0
INSERT
  5
423
100
AcDbEntity
  8
0
  6
Continuous
 62
     8
100
AcDbBlockReference
  2
*B30
 10
0.0
 20
0.0
 30
0.0
  0
INSERT
  5
429
100
AcDbEntity
  8
0
  6
Continuous
 62
     8
100
AcDbBlockReference
  2
*B31
 10
0.0
 20
0.0
 30
0.0
  0
INSERT
  5
42E
100
AcDbEntity
  8
0
  6
Continuous
 62
     8
100
AcDbBlockReference
  2
*B32
 10
0.0
 20
0.0
 30
0.0
  0
INSERT
  5
433
100
AcDbEntity
  8
0
  6
Continuous
 62
     8
100
AcDbBlockReference
  2
*B33
 10
0.0
 20
0.0
 30
0.0
  0
INSERT
  5
439
100
AcDbEntity
  8
0
  6
Continuous
 62
     8
100
AcDbBlockReference
  2
*B34
 10
0.0
 20
0.0
 30
0.0
  0
INSERT
  5
43F
100
AcDbEntity
  8
0
  6
Continuous
 62
     8
100
AcDbBlockReference
  2
*B35
 10
0.0
 20
0.0
 30
0.0
  0
INSERT
  5
444
100
AcDbEntity
  8
0
  6
Continuous
 62
     8
100
AcDbBlockReference
  2
*B36
 10
0.0
 20
0.0
 30
0.0
  0
INSERT
  5
459
100
AcDbEntity
  8
0
  6
Continuous
 62
     8
100
AcDbBlockReference
  2
*B37
 10
0.0
 20
0.0
 30
0.0
  0
INSERT
  5
45E
100
AcDbEntity
  8
0
  6
Continuous
 62
     8
100
AcDbBlockReference
  2
*B38
 10
0.0
 20
0.0
 30
0.0
  0
INSERT
  5
464
100
AcDbEntity
  8
0
  6
Continuous
 62
     8
100
AcDbBlockReference
  2
*B39
 10
0.0
 20
0.0
 30
0.0
  0
INSERT
  5
46B
100
AcDbEntity
  8
0
  6
Continuous
 62
     8
100
AcDbBlockReference
  2
*B40
 10
0.0
 20
0.0
 30
0.0
  0
INSERT
  5
470
100
AcDbEntity
  8
0
  6
Continuous
 62
     8
100
AcDbBlockReference
  2
*B41
 10
0.0
 20
0.0
 30
0.0
  0
INSERT
  5
481
100
AcDbEntity
  8
0
  6
Continuous
 62
     8
100
AcDbBlockReference
  2
*B42
 10
0.0
 20
0.0
 30
0.0
  0
INSERT
  5
486
100
AcDbEntity
  8
0
  6
Continuous
 62
     8
100
AcDbBlockReference
  2
*B43
 10
0.0
 20
0.0
 30
0.0
  0
INSERT
  5
4B6
100
AcDbEntity
  8
0
  6
Continuous
 62
     8
100
AcDbBlockReference
  2
*B44
 10
0.0
 20
0.0
 30
0.0
  0
INSERT
  5
4C9
100
AcDbEntity
  8
0
  6
Continuous
 62
     8
100
AcDbBlockReference
  2
*B45
 10
0.0
 20
0.0
 30
0.0
  0
INSERT
  5
4CE
100
AcDbEntity
  8
0
  6
Continuous
 62
     8
100
AcDbBlockReference
  2
*B46
 10
0.0
 20
0.0
 30
0.0
  0
INSERT
  5
4D5
100
AcDbEntity
  8
0
  6
Continuous
 62
     8
100
AcDbBlockReference
  2
*B47
 10
0.0
 20
0.0
 30
0.0
  0
INSERT
  5
4DE
100
AcDbEntity
  8
0
  6
Continuous
 62
     8
100
AcDbBlockReference
  2
*B48
 10
0.0
 20
0.0
 30
0.0
  0
INSERT
  5
4E4
100
AcDbEntity
  8
0
  6
Continuous
 62
     8
100
AcDbBlockReference
  2
*B49
 10
0.0
 20
0.0
 30
0.0
  0
INSERT
  5
4E9
100
AcDbEntity
  8
0
  6
Continuous
 62
     8
100
AcDbBlockReference
  2
*B50
 10
0.0
 20
0.0
 30
0.0
  0
INSERT
  5
51C
100
AcDbEntity
  8
0
  6
Continuous
 62
     8
100
AcDbBlockReference
  2
*B51
 10
0.0
 20
0.0
 30
0.0
  0
INSERT
  5
525
100
AcDbEntity
  8
0
  6
Continuous
 62
     8
100
AcDbBlockReference
  2
*B52
 10
0.0
 20
0.0
 30
0.0
  0
INSERT
  5
52B
100
AcDbEntity
  8
0
  6
Continuous
 62
     8
100
AcDbBlockReference
  2
*B53
 10
0.0
 20
0.0
 30
0.0
  0
INSERT
  5
531
100
AcDbEntity
  8
0
  6
Continuous
 62
     8
100
AcDbBlockReference
  2
*B54
 10
0.0
 20
0.0
 30
0.0
  0
INSERT
  5
53E
100
AcDbEntity
  8
0
  6
Continuous
 62
     8
100
AcDbBlockReference
  2
*B55
 10
0.0
 20
0.0
 30
0.0
  0
INSERT
  5
543
100
AcDbEntity
  8
0
  6
Continuous
 62
     8
100
AcDbBlockReference
  2
*B56
 10
0.0
 20
0.0
 30
0.0
  0
INSERT
  5
549
100
AcDbEntity
  8
0
  6
Continuous
 62
     8
100
AcDbBlockReference
  2
*B57
 10
0.0
 20
0.0
 30
0.0
  0
INSERT
  5
54E
100
AcDbEntity
  8
0
  6
Continuous
 62
     8
100
AcDbBlockReference
  2
*B58
 10
0.0
 20
0.0
 30
0.0
  0
INSERT
  5
554
100
AcDbEntity
  8
0
  6
Continuous
 62
     6
100
AcDbBlockReference
  2
*B59
 10
0.0
 20
0.0
 30
0.0
  0
INSERT
  5
55A
100
AcDbEntity
  8
0
  6
Continuous
 62
     6
100
AcDbBlockReference
  2
*B60
 10
0.0
 20
0.0
 30
0.0
  0
INSERT
  5
560
100
AcDbEntity
  8
0
  6
Continuous
 62
     6
100
AcDbBlockReference
  2
*B61
 10
0.0
 20
0.0
 30
0.0
  0
INSERT
  5
566
100
AcDbEntity
  8
0
  6
Continuous
 62
     6
100
AcDbBlockReference
  2
*B62
 10
0.0
 20
0.0
 30
0.0
  0
INSERT
  5
56C
100
AcDbEntity
  8
0
  6
Continuous
 62
     6
100
AcDbBlockReference
  2
*B63
 10
0.0
 20
0.0
 30
0.0
  0
INSERT
  5
572
100
AcDbEntity
  8
0
  6
Continuous
 62
     6
100
AcDbBlockReference
  2
*B64
 10
0.0
 20
0.0
 30
0.0
  0
INSERT
  5
578
100
AcDbEntity
  8
0
  6
Continuous
 62
     6
100
AcDbBlockReference
  2
*B65
 10
0.0
 20
0.0
 30
0.0
  0
INSERT
  5
57E
100
AcDbEntity
  8
0
  6
Continuous
 62
     6
100
AcDbBlockReference
  2
*B66
 10
0.0
 20
0.0
 30
0.0
  0
INSERT
  5
584
100
AcDbEntity
  8
0
  6
Continuous
 62
     6
100
AcDbBlockReference
  2
*B67
 10
0.0
 20
0.0
 30
0.0
  0
INSERT
  5
58A
100
AcDbEntity
  8
0
  6
Continuous
 62
     6
100
AcDbBlockReference
  2
*B68
 10
0.0
 20
0.0
 30
0.0
  0
INSERT
  5
591
100
AcDbEntity
  8
0
  6
Continuous
 62
     0
100
AcDbBlockReference
  2
*B69
 10
0.0
 20
0.0
 30
0.0
  0
INSERT
  5
596
100
AcDbEntity
  8
TEXT
  6
Continuous
 62
     0
100
AcDbBlockReference
  2
*B70
 10
0.0
 20
0.0
 30
0.0
  0
INSERT
  5
59B
100
AcDbEntity
  8
TEXT
  6
Continuous
 62
     0
100
AcDbBlockReference
  2
*B71
 10
0.0
 20
0.0
 30
0.0
  0
INSERT
  5
5A0
100
AcDbEntity
  8
TEXT
  6
Continuous
 62
     0
100
AcDbBlockReference
  2
*B72
 10
0.0
 20
0.0
 30
0.0
  0
INSERT
  5
5A5
100
AcDbEntity
  8
TEXT
  6
Continuous
 62
     0
100
AcDbBlockReference
  2
*B73
 10
0.0
 20
0.0
 30
0.0
  0
INSERT
  5
5AA
100
AcDbEntity
  8
TEXT
  6
Continuous
 62
     0
100
AcDbBlockReference
  2
*B74
 10
0.0
 20
0.0
 30
0.0
  0
INSERT
  5
5AF
100
AcDbEntity
  8
TEXT
  6
Continuous
 62
     0
100
AcDbBlockReference
  2
*B75
 10
0.0
 20
0.0
 30
0.0
  0
INSERT
  5
5B4
100
AcDbEntity
  8
TEXT
  6
Continuous
 62
     0
100
AcDbBlockReference
  2
*B76
 10
0.0
 20
0.0
 30
0.0
  0
INSERT
  5
5B9
100
AcDbEntity
  8
TEXT
  6
Continuous
 62
     0
100
AcDbBlockReference
  2
*B77
 10
0.0
 20
0.0
 30
0.0
  0
INSERT
  5
5BE
100
AcDbEntity
  8
TEXT
  6
Continuous
 62
     0
100
AcDbBlockReference
  2
*B78
 10
0.0
 20
0.0
 30
0.0
  0
INSERT
  5
5C3
100
AcDbEntity
  8
TEXT
  6
Continuous
 62
     0
100
AcDbBlockReference
  2
*B79
 10
0.0
 20
0.0
 30
0.0
  0
INSERT
  5
5C8
100
AcDbEntity
  8
TEXT
  6
Continuous
 62
     0
100
AcDbBlockReference
  2
*B80
 10
0.0
 20
0.0
 30
0.0
  0
INSERT
  5
5CD
100
AcDbEntity
  8
TEXT
  6
Continuous
 62
     0
100
AcDbBlockReference
  2
*B81
 10
0.0
 20
0.0
 30
0.0
  0
INSERT
  5
5D2
100
AcDbEntity
  8
TEXT
  6
Continuous
 62
     0
100
AcDbBlockReference
  2
*B82
 10
0.0
 20
0.0
 30
0.0
  0
INSERT
  5
5D7
100
AcDbEntity
  8
TEXT
  6
Continuous
 62
     0
100
AcDbBlockReference
  2
*B83
 10
0.0
 20
0.0
 30
0.0
  0
INSERT
  5
5DC
100
AcDbEntity
  8
TEXT
  6
Continuous
 62
     0
100
AcDbBlockReference
  2
*B84
 10
0.0
 20
0.0
 30
0.0
  0
INSERT
  5
5E1
100
AcDbEntity
  8
TEXT
  6
Continuous
 62
     0
100
AcDbBlockReference
  2
*B85
 10
0.0
 20
0.0
 30
0.0
  0
INSERT
  5
5E6
100
AcDbEntity
  8
TEXT
  6
Continuous
 62
     0
100
AcDbBlockReference
  2
*B86
 10
0.0
 20
0.0
 30
0.0
  0
INSERT
  5
5EB
100
AcDbEntity
  8
TEXT
  6
Continuous
 62
     0
100
AcDbBlockReference
  2
*B87
 10
0.0
 20
0.0
 30
0.0
  0
INSERT
  5
5F0
100
AcDbEntity
  8
TEXT
  6
Continuous
 62
     0
100
AcDbBlockReference
  2
*B88
 10
0.0
 20
0.0
 30
0.0
  0
INSERT
  5
5F5
100
AcDbEntity
  8
TEXT
  6
Continuous
 62
     0
100
AcDbBlockReference
  2
*B89
 10
0.0
 20
0.0
 30
0.0
  0
INSERT
  5
5FA
100
AcDbEntity
  8
TEXT
  6
Continuous
 62
     0
100
AcDbBlockReference
  2
*B90
 10
0.0
 20
0.0
 30
0.0
  0
INSERT
  5
5FF
100
AcDbEntity
  8
TEXT
  6
Continuous
 62
     0
100
AcDbBlockReference
  2
*B91
 10
0.0
 20
0.0
 30
0.0
  0
INSERT
  5
604
100
AcDbEntity
  8
TEXT
  6
Continuous
 62
     0
100
AcDbBlockReference
  2
*B92
 10
0.0
 20
0.0
 30
0.0
  0
INSERT
  5
609
100
AcDbEntity
  8
TEXT
  6
Continuous
 62
     0
100
AcDbBlockReference
  2
*B93
 10
0.0
 20
0.0
 30
0.0
  0
INSERT
  5
60E
100
AcDbEntity
  8
TEXT
  6
Continuous
 62
     0
100
AcDbBlockReference
  2
*B94
 10
0.0
 20
0.0
 30
0.0
  0
INSERT
  5
613
100
AcDbEntity
  8
TEXT
  6
Continuous
 62
     0
100
AcDbBlockReference
  2
*B95
 10
0.0
 20
0.0
 30
0.0
  0
ENDSEC
  0
SECTION
  2
OBJECTS
  0
DICTIONARY
  5
19
100
AcDbDictionary
280
     0
281
     1
  3
ACAD_GROUP
350
1A
  3
ACAD_MLINESTYLE
350
1B
  3
ACAD_LAYOUT
350
1E
  3
ACAD_PLOTSETTINGS
350
22
  3
ACAD_PLOTSTYLENAME
350
1F
  3
ACAD_WIPEOUT_VARS
350
23
  0
DICTIONARY
  5
1A
102
{ACAD_REACTORS
330
19
102
}
100
AcDbDictionary
280
     0
281
     1
  0
DICTIONARY
  5
1B
102
{ACAD_REACTORS
330
19
102
}
100
AcDbDictionary
280
     0
281
     1
  3
Standard
350
1C
  0
MLINESTYLE
  5
1C
102
{ACAD_REACTORS
330
1B
102
}
100
AcDbMlineStyle
  2
Standard
 70
     0
  3

 62
     0
 51
90.0
 52
90.0
 71
     2
 49
0.5
 62
   256
  6
BYLAYER
 49
-0.5
 62
   256
  6
BYLAYER
  0
ACDBDICTIONARYWDFLT
  5
1F
102
{ACAD_REACTORS
330
19
102
}
100
AcDbDictionary
281
     1
  3
Normal
350
1D
100
AcDbDictionaryWithDefault
340
1D
  0
ACDBPLACEHOLDER
  5
1D
102
{ACAD_REACTORS
330
1F
102
}
  0
LAYOUT
  5
20
102
{ACAD_REACTORS
330
1E
102
}
100
AcDbPlotSettings
  1

  2

  4

  6

 40
0.0
 41
0.0
 42
0.0
 43
0.0
 44
0.0
 45
0.0
 46
0.0
 47
0.0
 48
0.0
 49
0.0
140
0.0
141
0.0
142
1.0
143
1.0
 70
     0
 72
     0
 73
     0
 74
     0
  7

 75
     0
147
1.0
148
0.0
149
0.0
100
AcDbLayout
  1
Model
 70
     0
 71
     0
 10
0.0
 20
0.0
 11
0.0
 21
0.0
 12
0.0
 22
0.0
 32
0.0
 14
0.0
 24
0.0
 34
0.0
 15
0.0
 25
0.0
 35
0.0
146
0.0
 13
0.0
 23
0.0
 33
0.0
 16
0.0
 26
0.0
 36
0.0
 17
0.0
 27
0.0
 37
0.0
 76
     0
330
A
331
0
345
0
346
0
  0
LAYOUT
  5
21
102
{ACAD_REACTORS
330
1E
102
}
100
AcDbPlotSettings
  1

  2

  4

  6

 40
0.0
 41
0.0
 42
0.0
 43
0.0
 44
0.0
 45
0.0
 46
0.0
 47
0.0
 48
0.0
 49
0.0
140
0.0
141
0.0
142
1.0
143
1.0
 70
     0
 72
     0
 73
     0
 74
     0
  7

 75
     0
147
1.0
148
0.0
149
0.0
100
AcDbLayout
  1
Layout1
 70
     0
 71
     0
 10
0.0
 20
0.0
 11
0.0
 21
0.0
 12
0.0
 22
0.0
 32
0.0
 14
0.0
 24
0.0
 34
0.0
 15
0.0
 25
0.0
 35
0.0
146
0.0
 13
0.0
 23
0.0
 33
0.0
 16
0.0
 26
0.0
 36
0.0
 17
0.0
 27
0.0
 37
0.0
 76
     0
330
B
331
0
345
0
346
0
  0
DICTIONARY
  5
1E
102
{ACAD_REACTORS
330
19
102
}
100
AcDbDictionary
280
     0
281
     1
  3
Layout1
350
21
  3
Model
350
20
  0
DICTIONARY
  5
22
102
{ACAD_REACTORS
330
19
102
}
100
AcDbDictionary
280
     0
281
     1
  0
WIPEOUTVARIABLES
  5
23
100
AcDbWipeoutVariables
 70
     1
  0
ENDSEC
  0
EOF
